Tutorial

Ligados

Enviado por JonatasRA

E aí galera! Sou eu de novo postando mais um tutorial. Depois que eu postei aquele tutorial de compra da guitarra, vieram um monte de gente me mandar email para falar que guitarra comprar.
Agora vou fazer um tutorial sobre ligados. Primeiro eu vou explicar um pouco sobre os ligados.

Ligados:

*Hammer-on:
Hammer é martelo em ingles, é assim que o seu dedo vai funcionar no Hammer-on.
Ex:

|-----------|aqui voce vai tocar a nota E com a
|-----------|palheta e logo depois vai ferir a nota
|-----------|F# com o dedo da mão esquerda (se voce
|-----------|for destro).
|-----------|
|----0h2----|


*Pull-off:
no Pull off você vai fazer ao contrario do Hammer-on, você vai tocar uma nota e, rapidamente, vai para a outra nota:
|--------|
|--------|
|--------|
|--------|
|--------|
|--2p3---|


Agora que entendemos sobre os ligados, vamos aos exercícios:

Hammer-on:
1º:
|-----------------------|fazer este exercício até
|-----------------------|estar fazendo bem ele
|-----------------------|
|-----------------------|
|-----------------------|
|--5h6-5h6-5h6-5h6-5h6--|
2º:
|------------------------|
|------------------------|
|------------------------|fazer umas 4x
|------------------------|
|------5h6-----5h6-------|
|--5h6-----5h6-----5h6---|
3º:
|----------------------5h6-6h5----------------------|
|------------------5h6---------6h5------------------|
|--------------5h6-----------------6h5--------------|
|----------5h6-------------------------6h5----------|
|------5h6---------------------------------6h5------|
|--5h6-----------------------------------------6h5--|


agora faça os mesmos exercícios usando o Pull-off no lugar do Hammer-on.

4ª usando os dois:
|----------------------------------------------|
|----------------------------------------------|
|----------------------------------------------|
|----------------------------------------------|
|---------5h6-5p6--------5h6-5p6---------------|
|-5h6-5p6--------5h6-5p6---------5h6-5p6-------|


Então é isso, treinem bastante e qualquer dúvida mandem um email para [email protected] Até a proxima, falou.