Tutorial

Agilidades - Primeiros Exercícios.

Enviado por GustavoTurner

Quando iniciante, você depois de pegar mais parte teorica, pode começar a pegar a parte prática, e treinando sua agilidade logo cedo você ganha pontos na hora de subir seu grau para arpejos e etc.

Aqui alguns exercícios ótimos:





Este abaixo é bom para treinar o dedo "mindinho"(que teima em deitar...) e a palhetada alternada mudando as cordas...

e|------------------------------------------------|
B|------------------------------------------------|
G|-1-------2-------3-------4------5-------6-------|
D|---2-------3-------4-------5------6-------7-----|
A|-----3-------4-------5-------6------7-------8---|
E|-------4-------5-------6------7-------8-------9-|

Outro bom pra treinar o dominio da mao esquerda e também dá mais firmeza para o último dedo...

e|----------------------------------------1-2-3-5-|
B|--------------------------------1-2-3-5---------|
G|------------------------1-2-3-5-----------------|
D|----------------1-2-3-5-------------------------|
A|--------1-2-3-5---------------------------------|
E|1-2-3-5-----------------------------------------|


-

e---------------1-2-|-2-1----------------
B------------1-2----|---2-1--------------
G---------1-2-------|------2-1-----------
D------1-2----------|---------2-1--------
A---1-2-------------|------------2-1-----
E1-2----------------|---------------2-1--


É isso!