I Still Haven't Found What I'm Looking ForTradução Verificada

U2

Verse:  

G|--------------------|-------------------|  
D|--------------------|--4--4--4----------|  
A|--4--4--4--1-2--4---|-----------1-2--4--|  
E|--------------------|-------------------|  
                  (8x)                (2x)  
Chorus:  

G|------------------|----------------------------|  
D|--6------------4--|----------------------------|  
A|------1-2--4------|--4--4--4--1-2--4--4--4--4--|  
E|------------------|----------------------------|  

G|--------------------------------------------------------------------|  
D|---------------------------4--4--4--4--4----------------------------|  
A|-----------------1--2--4-------------------1--2--4--4-4-4--1-2--4-4-|  
E|--4--4--4--4--4-----------------------------------------------------|  

Compartilhe esta música: novo

QR Code
Copiar