Rebelde

RBD

Tom: G
começa só a guitarra depois entra o baixo da um toque em 
cada nota quando eles cantam não importa muito o que dizem de mim 
 
isso na versao aovivo na versao estudio ele nao da este 
toque mas a versao aovivo é mais massa 
g-------------------------------------------------- 
d-------------------------------------------------- 
a--------------------5-------------------------3--- 
e--3----------------------------0------------------ 
 
Refrão 
g--------------------------------------------------------- 
d------------------------------------------------------------------------ 
a-------------------------5-5-5-5-5-5-5-5--------------------3-3-3-3-3-3-3-3-3- 
e-12/3---3-3-3-3-3-3-3-3---------------------0-0-0-0-0-0-0-0------------------ 
 
nos versos e no solo é a mesma 
coisa mas so que o baixo acompanha 
o bumbo da batera se vc fo toca ne 
uma banda essa musica tira a batera certo. 
 
g--------------------------------------------------------------- 
d--------------------------------------------------------------- 
a-----------------5--x--5--5---x------------------3-x-3-3-x----- 
e-3-x-3--3--x-----------------------0--x-0--0-x----------------- 
 
qualquer duvida meu e-mail é [email protected] 

Compartilhe esta música: novo

QR Code
Copiar