Este Corazón

RBD

Tom: G
Intro 
G.------------------------------------------------------------ 
D.------------------------------------------------------------ 
A.------------------------------------------------2-2--2-2-2-- 
E.--3-3--3-3-3--2-3-2-2--2-2-2--0-2-0-0--0-0-0--2------------- 
 
Primer verso sin linea de bajo 
 
Segundo Verso 
Como sanar este profundo dolor... 
G.------------------------------------------------------------ 
D.------------------------------------------------------------ 
A.------------------------------------------------2-2--2-2-2-- 
E.--3-3--3-3-3--2-3-2-2--2-2-2--0-2-0-0--0-0-0--2------------- 
 
Pre-coro 
Estoy tan conectada a ti... 
G.------------------------------------------------------------ 
D.------------------------------------------------------------ 
A.-5-3-3--3-3-3--2-3-----------------------------5-5-7-7-9-9-- 
E.-------------------3-3--3-3-3--3-5-5--5-5-5--5-------------- 
 
Coro 
Y este corazón que te robaste cuando te marchaste... 
G.-------------------------------------------- 
D.-------------------------------------------- 
A.-------------------2-3--3-3-2------5-5------ 
E.--3--3-3--2-0--0-0------------5-5----------- 
 
Puente 
G.------------------------------------------------------------ 
D.------------------------------------------------------------ 
A.------------------------------------------------2-2--2-2-2-- 
E.--3-3--3-3-3--2-3-2-2--2-2-2--0-2-0-0--0-0-0--2------------- 
 
Tercer verso sin linea de bajo. 
 
que hasta en mis sueños te veo... 
G.------------------------------- 
D.------------------------------- 
A.------------------5-5-7-7-9-9-- 
E.--3-5-5--5-5-5--5-------------- 
 
Coro 
Y este corazón que te robaste cuando te marchaste... 
G.-------------------------------------------- 
D.-------------------------------------------- 
A.-------------------2-3--3-3-2------5-5------ 
E.--3--3-3--2-0--0-0------------5-5-------3--- 
 
Otra vez el coro pero al final se le agrega 
 
sigue ardiendo... 
G.------------------------------------- 
D.------------------------------------- 
A.-----------------3--3-3--2---5-5-----  Se repite 
E.-3--3-3--0--0-0------------5------3-- 
 
Coro... 
 

Compartilhe esta música: novo

QR Code
Copiar