Blitzkrieg Bop

Ramones

intro (a partir do 3º hey ho let's go) 
A|------------5-5--7-7-7-7-------------5-5--7-7-7-7-------------5-5--7-7-7-7-| 
E|-5-5-5-5-5----------------5-5-5-5-5----------------5-5-5-5-5---------------| 
 
A|----------5-5------------------------| 
E|-5-5-5-5-------5-5-5-----------------| 
 
E|-5-5-5-5-5-5-5-5-5-5-5-5-5-5-5-5-5-5-| 
 
Verso: 2 vezes 
               
A|------------5-5--7-7-7-7-------------5-5--7-7-7-7-------------5-5--7-7-7-7-| 
E|-5-5-5-5-5----------------5-5-5-5-5----------------5-5-5-5-5---------------| 
 
A|----------5-5------------------------| 
E|-5-5-5-5-------5-5-5-----------------| 
 
Refrão: 
 
A|-5-5-5-5---------5-5-5-------5-5-5-5-5---------5-5--7-7-7-7-| 
E|---------5-5-5-5-------5-5-5-----------7-7-7-7--------------| 

Compartilhe esta música: novo

QR Code
Copiar