Mother

Pink Floyd

Tom: G
Ok Guys and Gals, here's 'Mother.'  It's not too difficult, start at the end  
of the second verse. I broke it down into segments, play it: 
 
ABCDEC 
 
A. 
 
Ooh, Ahh, is it just a waste of time 
 
|-----------------------------------------| 
|T---------------------------------------| 
|A---5------3--------------5---3-------| 
|B------------------3---------------3---| 
 
B. 
 
Hush now Baby, Baby don't you cry 
 
|-----------------------------------------------------------| 
|T----------------------------------------2--3------------| 
|A------------------3------3--3---3--5----------3---3--| 
|B---3------3------3--------------------------------------| 
 
|------------------------------------------------------------------| 
|---3--------------3------------3--------3------3-------------5-| 
|--------3---3-2-----3---2-3-------3-------3------3--2--------| 
|------------------------------------------------------------3-----| 
 
C. 
 
Ooh, babe 
 
|---------------------------------------------------| 
|T-------------------------------------------------| 
|A---5-----3-----5-----3-----5-----3------------| 
|B------------------------------------------3---3-| 
 
D. 
 
(Guitar Solo) 
 
|------------------------------------------------------------------------------| 
|T-----------------------------------------------------------------------------| 
|A-------3---3------------3--3------------3---3---5---5---3---3----------| 
|B---3------------3---3-----------3---3------------------------------3---3-| 
 
E. 
 
Mother do you think 
 
|------------------------------------------------------------------------------------| 
|T------------------------------5-------5------------------------------5-------5--| 
|A-----------3--3--3--3--------------------------- 3--3--3--3-------------------| 
|B---3---3-----------------3-------3-------3---3----------------3-------3-------| 
 
|------------------------------------------------------------------------------------| 
|-----------------------------5-------5----------------------------------5-------5-| 
|-----------3--3--3--3----------------------------5---3---5---3------------------| 
|---3---3----------------3-------3-------3---3---------------------3-------3-----| 
 
 
Have fun and keep Jammin' on the low end. 
 

Compartilhe esta música: novo

QR Code
Copiar