Diary of a Madman

Ozzy Osbourne

Intro (play to drum) 
Gb---------------------------------- 
Db-----R----R----R----R----R-------- 
Ab--0----0----0----0----0-----0----- 
Eb-------------------------------0-- 
 
Gb-------------------- 
Db-------------------- 
Ab--------------3--2-- 
Eb--0---2---3--------- 
 
Verse (The rythym is hard to get used to, but after a while it is easy to play) 
 
  'Screaming...........at the Window.....' 
Gb-------------------------------------------- 
Db-------------------------------------------- 
Ab-------------------------------------------- 
Eb--3----5----3----5-------3--5------3--5----- 
 
Chorus 
Gb-------------------------------- 
Db-------------------------------- 
Ab-------------------------------- 
Eb--5----3----1----3----1----3---- 
 
repeat Verse 
 
Chorus 2 
Gb------------------------------------------------- 
Db-----------------------------------7------------- 
Ab-------------------------------------7----------- 
Eb--5----3----1----3----1----3----5-------1----3--- 
 
Gb-------------------------------- 
Db-------------------------------- 
Ab-------------------------------- 
Eb--5----3----1----3----1----3---- 
 
repeat Intro x 2 
 
Interlude 
Gb-------------------------------------------------------------- 
Db-----------------------5-------------------------------------- 
Ab---------5--5h7----------7p5-------------5--5h7----------5h7-- 
Eb--3--3h5---------0--0--------7p5--3--3-3---------0--0-0------- 
 
Gb---------------------------------------------------------------------- 
Db--------------------5------------------------------------------------- 
Ab----------------------7p5-------------5h7------------5h7-----7-----7-- 
Eb--6--6-5--5--0-0-0--------7p5--3--3-3------0-0-0-5h7------6-----5----- 
 
Slow Guitar Part 
Gb----------------- 
Db-------R--------- 
Ab----------------- 
Eb----------------- 
 
		'A sickened mind and spirit..' 
Gb------------------------------------------------ 
Db---4h5p4---------------------------------------- 
Ab---------5---7----------------------5----------- 
Eb------------------------------------------------ 
 
	'The mirror tells me lies...' 
Gb------------------------------------------------- 
Db---------------------------------4h5p4----------- 
Ab----------------------------------------7---5---- 
Eb----0-------------------------------------------- 
 
	'Could I mistake myself for someone..' 
Gb---------------------------------------------------------- 
Db---------------------------------------------4h5p4-------- 
Ab-----------------------------5----------------------5--7-- 
Eb----0----------------------------------------------------- 
 
   'Who lives behind my eyes....' 
Gb--------------------------------------- 
Db--------------------------------------- 
Ab---------------------------5----------- 
Eb--------------------------------------- 
 
			'Will he escape my soul.....'	 
Gb-------------------------------------------------------- 
Db----4h5p4----------------------------------------------- 
Ab----------5--7-------7--------------5------------------- 
Eb-----------------0-------------------------------------- 
		    'Or will he live in me..' 
Gb------------------------------------------------------- 
Db---4h5p4----------------------------------4h5p4-------- 
Ab----------5--7--------7--------------------------7--5-- 
Eb------------------0------------------------------------ 
		'Is he trying to get out...' 
Gb-------------------------------------------------------- 
Db--------------------------------4h5p4------------------- 
Ab------------7--------------------------7--5------------- 
Eb-------------------------------------------------------- 
 
	    'Or trying to enter me..' 
Gb---------------------------------------------- 
Db---4h5p4---------------------4h5p4------------ 
Ab---------5--7------7----------------7--5------ 
Eb----------------0----------------------------- 
 
	x 6 
Gb-------------------------------------------------------------- 
Db---4h5p4---------------------------4h5p4---------------------- 
Ab----------5--7----------------------------7--5--5-5-55-5-5-5-- 
Eb----------------0--0-0-0--0-0-0-0----------------------------- 
 
	play once		x 3 
Gb-----------------------|---------------------------------------------------------- 
Db-----------------------|-------------------------------------4-4-------0-5-4-2-0-- 
Ab--3--3-3-5p3-----------|--------7p5--7---------------------------2-0-2------------ 
Eb-------------2--2-3p2--|--0--0----------8p7--8----0--0h2-2-2---------------------- 
 
repeat Verse 
repeat Chorus 
repeat Intro for Outro 
 
 

Compartilhe esta música: novo

QR Code
Copiar