7 Things

Miley Cyrus

Tom: E
Intro (Start at 0:05) 

G|------------| 
D|------------| 
A|------------| 
E|-00------00-| 

Verse x2 

G|--------------------------------------------------| 
D|--------------------------------------------------| 
A|-----------------66------66------44------44-------| 
E|-00------00---------------------------------------| 

Chorus x3 

G|----------------------------------| 
D|----------------------------------| 
A|-----6666444422225555555577777777-| 
E|-0000-----------------------------| 

Post-Chorus 

G|-------------------------------| 
D|-------------------------------| 
A|-------------------------------| 
E|-44444444555555557777777777777-| 

G|------------| 
D|------------| 
A|------------| 
E|-00------00-| 

Verse x2 

G|--------------------------------------------------| 
D|--------------------------------------------------| 
A|-----------------66------66------44------44-------| 
E|-00------00---------------------------------------| 

Chorus x2 

G|----------------------------------| 
D|----------------------------------| 
A|-----6666444422225555555577777777-| 
E|-0000-----------------------------| 

Post-Chorus 

G|---------------------------| 
D|---------------------------| 
A|---------------------------| 
E|-4444444455555555777777777-| 

G|------------| 
D|------------| 
A|------------| 
E|-00------00-| 

REST 

Chorus x2 

G|----------------------------------| 
D|----------------------------------| 
A|-----6666444422225555555577777777-| 
E|-0000-----------------------------| 

Post-Chorus 

G|-------------------------------| 
D|-------------------------------| 
A|-------------------------------| 
E|-44444444555555557777777777777-| 

Outro x6 

G|------------| 
D|------------| 
A|------------| 
E|-00------00-| 

End 

Compartilhe esta música: novo

QR Code
Copiar