Whole Lotta Love

Led Zeppelin

Led Zeppelin II 
John-Paul Jones 
 
This is a slight refinement on my last tab, This includes the solo and outlines  
how to play the whole song more clearly. 
 
Intro: 
 
G|----------------------------------| 
D|----------------------------------| 
A|--5--5-7-777-777-777-777-777-777p5| <- you don't have to do the 7p5 but it  
E|-7--7-----------------------------|    sounds slightly funkier! 
 
Main riff: 
 
G|------------------| 
D|------------------| 
A|--5--5-7-777-777p5| 
E|-7--7-------------| 
 
Solo: 
 
G|------------------| 
D|------------------| 
A|--7--7------------| <- Just before each guitar bit 
E|------------------| 
 
Woman, youuu neeed..... 
 
G|----------| 
D|----------| 
A|-7--------| 
E|-----5----| 
 
End: 
 
G|------------------| <- This riff is palyed @ 4.33, after that you play the 
D|-----7------------|    main riff then this riff again every second time  
A|--5----7-777-777p5|    until the end. Again the 7p5 optional! 
E|-7--7-------------| 
 
  
 Well, that's my contribution to society. VIVA CHÉ!!! 
 Comments, corrections, death threaths etc. to: 
 ----->   [email protected]     ¬''''============<____)  

Compartilhe esta música: novo

QR Code
Copiar