Better Together

Jack Johnson

Tom: F
The intro is all acoustic guitar and has no bass so ill just start with the verse. 



Verse 

G----------------|----------------|----------------| 
D--3~--2~--0~----|----------------|----------------| 
A----------------|--3~--1~--0~----|---3~-----------| 
E----------------|-------------3~-|----------------| 

G----------------|----------------|----------------| 
D--3~--2~--0~----|----------------|----------------| 
A----------------|--3~--1~--0~----|---3~-----------| 
E----------------|-------------3~-|----------------| 

G----------------|----------------|----------------| 
D--3~--2~--0~----|----------------|----------------| 
A----------------|--3~--1~--0~----|---3~-----------| 
E----------------|-------------3~-|----------------| 

G----------------|----------------|----------------| 
D--3~--2~--0~----|----------------|----------------| 
A----------------|--3~--1~--0~----|---3~-----------| 
E----------------|-------------3~-|----------------| 



Chorus 

G--------3-------|---------5------|---------3------|--------5-------| 
D----------------|----------------|----------------|----------------| 
A--1~-1----------|--3~-3----------|--1~-1----------|-3~-3-----------| 
E----------------|----------------|----------------|----------------| 

G--------3-------|---------5------|---------3------|--------5-------| 
D----------------|----------------|----------------|----------------| 
A--1~-1----------|--3~-3----------|--1~-1----------|-3~-3-----------| 
E----------------|----------------|----------------|----------------| 


Verse 

G----------------|----------------|----------------| 
D--3~--2~--0~----|----------------|----------------| 
A----------------|--3~--1~--0~----|---3~-----------|  (6x) 
E----------------|-------------3~-|----------------| 


Chorus 

G--------3-------|---------5------|---------3------|--------5-------| 
D----------------|----------------|----------------|----------------| 
A--1~-1----------|--3~-3----------|--1~-1----------|-3~-3-----------| 
E----------------|----------------|----------------|----------------| 

G--------3-------|---------5------|---------3------|--------5-------| 
D----------------|----------------|----------------|----------------| 
A--1~-1----------|--3~-3----------|--1~-1----------|-3~-3-----------| 
E----------------|----------------|----------------|----------------| 




Verse 

G----------------|----------------|----------------| 
D--3~--2~--0~----|----------------|----------------| 
A----------------|--3~--1~--0~----|---3~-----------|  (2x) 
E----------------|-------------3~-|----------------| 


Bridge 

G--------3-------|---------5------|---------3------|--------5-------| 
D----------------|----------------|----------------|----------------| 
A--1~-1----------|--3~-3----------|--1~-1----------|-3~-3-----------| 
E----------------|----------------|----------------|----------------| 
                                                                       (2x) 
G--------3-------|---------5------|---------3------|--------5-------| 
D----------------|----------------|----------------|----------------| 
A--1~-1----------|--3~-3----------|--1~-1----------|-3~-3-----------| 
E----------------|----------------|----------------|----------------| 


Outro 

G----------------|----------------|----------------| 
D--3~--2~--0~----|----------------|----------------| 
A----------------|--3~--1~--0~----|---3~-----------|  (2x) 
E----------------|-------------3~-|----------------|

Compartilhe esta música: novo

QR Code
Copiar