Pieces Of Me

Ashlee Simpson

Tom: D5
Key: ~ Let Note Ring 
 
Intro 
 
Theres no bass in the intro of first part of the verse the bass comes in at 0:16 with the lyrics 
\'When the phone rings...\' 
 
G -------------------------------------------------------------- 
D -------------------------------------------------------------- 
A ---------------7-7--7--7-7--10-10--10--10-10--12-12--12--12-12 
E --7-7--7--7-7------------------------------------------------- 
 
 
Pre-Chorus 
\'Fall With You...\' 
 
G ----------------------------------- 
D ----------------------------------- 
A -2-2-2-2-2-2-2-2------------------- 
E -----------------3-3-3-3-3-3-3-3--- 
 
\'I Can Hardly...\' 
G ----------------------------------- 
D ----------------------------------- 
A -2-2-2-2-2-2-2-2--3-3-3-3---------- 
E --------------------------3-3-3-3-- 
 
 
 
Chorus 
\'OHHHH It Seems Like...\' 
 
The tens (10) Sound better then open D 
 
G -------------------------------------- 
D -0-0-0-0------------------------------ 
A -------------------------------0-0-0-0 
E (10-10-10-10)-3-3-3-3--0-0-0-0-------- 
 
G --------------------------------------- 
D -0-0-0-0------------------------------- 
A --------------------------------0-0-0-0 
E (10-10-10-10)-3-3-3-3--0-0-0-0--------- x2 
 
 
Theres a small part after the Chorus and before the verse where the bass just plays 
 
G ------------------------------------- 
D ------------------------------------- 
A ------------------------------------- 
E -10~-------101010101010101010101010--- 
 
 
 
Bridge 
\'How Do You Know\' 
 
G ------------------------------------------- 
D -0-0-0-0-0-0-0-0--------------------------- 
A ------------------------------------------- 
E (10-10-10-10-10-10-10-10)--3-3-3-3-3-3-3-3- x2 
 
G ----------------------------------- 
D ----------------------------------- 
A -------------------0~-------------- 
E -0-0-0-0--2-2-2-2------------------ 
 
End 
G ---------------------------------- 
D ---------------------------------- 
A ---------------------------------- 
E -3~------------------------------- 
 
Any corrections/errors please email me [email protected] 
 
 
Downloaded from www.taborama.com 
 
 

Compartilhe esta música: novo

QR Code
Copiar