Screwdriver

You Vandal

Tom: D
Key: G Minor 

** FEEDBACK ** 

INTRO RIFF (0:12) 

  Guitar One (x4) 
e|---------------------------------------------------------------------------| 
B|---------------------------------------------------------------------------| 
G|---------------------------------------------------------------------------| 
D|--1---------------------------1---------------------------3----------------| 
A|--1--  LET RING  -------------1--  LET RING  ----3--3--3--3----------------| 
D|--1---------------------------1------------------3--3--3--3----------------| 
                                                   P.M----| 
  Guitar Two (x4) 
e|---------------------------------------------------------------------------| 
B|---------------------------------------------------------------------------| 
G|---------------------------------------------------------------------------| 
D|---8p0--7p0--5p0-0--8p0--7p0--5p0-0--8p0--7p0--5p0-0-10-10-10-10-10--8--7--| 
A|---------------------------------------------------------------------------| 
D|---------------------------------------------------------------------------| 

  Guitar Three - Harmony (x2) - Join in at 0:22 
e|---------------------------------------------------------------------------| 
B|---------------------------------------------------------------------------| 
G|---------------------------------------------------------------------------| 
D|--13p0-12p0-10p0-0-13p0-12p0-10p0-0-13p0-12p0-10p0-0-15-15-15-15-15-13-12--| 
A|---------------------------------------------------------------------------| 
D|---------------------------------------------------------------------------| 

PREVERSE RIFF (0:32) 

  (x1) 
e|-------------------------------------------------------------| 
B|-------------------------------------------------------------| 
G|-------------------------------------------------------------| 
D|--5-5--5--5--5-5-5---5-8-8---8--1-1---1--1--1--3-3--3--3--3--| 
A|--5-5--5--5--5-5-5---5-8-8---8--1-1---1--1--1--3-3--3--3--3--| 
D|--5-5--5--5--5-5-5---5-8-8---8--1-1---1--1--1--3-3--3--3--3--| 

  Guitar One (x1) 
e|-------------------------------------------------------------| 
B|-------------------------------------------------------------| 
G|-------------------------------------------------------------| 
D|--5-5--5--5--5-5-5---5-8-8---8--1-1---1--1--1--3-------------| 
A|--5-5--5--5--5-5-5---5-8-8---8--1-1---1--1--1--3--  STOP  ---| 
D|--5-5--5--5--5-5-5---5-8-8---8--1-1---1--1--1--3-------------| 

  Guitar Two (x1) 
e|-------------------------------------------------------------| 
B|-------------------------------------------------------------| 
G|--12-12-12----------------------8-------------10-------------| 
D|---x--x--x----------------------x--------------x-------------| 
A|--10-10-10----------------------6--------------8-------------| 
D|-------------------------------------------------------------| 

VERSE (0:42) 

  (x4) 
e|-----------------------------------------------------------------------| 
B|-----------------------------------------------------------------------| 
G|-----------------------------------------------------------------------| 
D|--5-5-5-5-5-5-5-5-5-5-5-5-5-5-5-5--1-1-1-1-1-1-1-1-1--3-3-3-3-3-3-3-3--| 
A|--5-5-5-5-5-5-5-5-5-5-5-5-5-5-5-5--1-1-1-1-1-1-1-1-1--3-3-3-3-3-3-3-3--| 
D|--5-5-5-5-5-5-5-5-5-5-5-5-5-5-5-5--1-1-1-1-1-1-1-1-1--3-3-3-3-3-3-3-3--| 
 1   Stuck inside your                room          to  night 
 2   Not as dark as what             just went on   out  side 
 3   Started to rethink having       far too much to     drink 
 4   watched him with you            wanted to lock  myself in that 

PREChorus (1:02) 

  (x2) 
e|------------------------------------------------------------------------| 
B|------------------------------------------------------------------------| 
G|----------------------3--3--3----------------------------3--3--3--5--7--| 
D|--1--1-1-1--1--1-1-1--3--3--3--3--0--1--1-1-1--1--1-1-1--3--3--3--5--7--| 
A|--1--1-1-1--1--1-1-1--1--1--1--3--0--1--1-1-1--1--1-1-1--1--1--1--3--5--| 
D|--1--1-1-1--1--1-1-1-----------3--0--1--1-1-1--1--1-1-1-----------------| 
       P.M--|    P.M--|                   P.M--|    P.M--| 
 1                                     A radical evening curled up 
 2                                                        and died 

Chorus (1:13): 

  (x4) 
e|-------------------------------------------------------------------| 
B|-------------------------------------------------------------------| 
G|----------------------------3-3-3----------------------------------| 
D|--1-1-1-1-1-1-1-1-1-1-1-1-1-3-3-3-3-3-3-3-3-3-3-3-3-3-3-3-3-3-3-3--| 
A|--1-1-1-1-1-1-1-1-1-1-1-1-1-1-1-1-3-3-3-3-3-3-3-3-3-3-3-3-3-3-3-3--| 
D|--1-1-1-1-1-1-1-1-1-1-1-1-1-------3-3-3-3-3-3-3-3-3-3-3-3-3-3-3-3--| 
 1         Well I had           a      really nice time to- 
 2   night, why can't         things   ever just turn out right 
 3              I had           a      really nice time to- 
 4   night, why can't         things   ever just turn out 

POSTChorus (1:33) 

  (x1) 
e|--------------------------------------------------| 
B|--------------------------------------------------| 
G|--------------------------------------------------| 
D|--1--1--1--1--1--1--1--1--5--5--5--5--5--5--5--5--| 
A|--1--1--1--1--1--1--1--1--5--5--5--5--5--5--5--5--| 
D|--1--1--1--1--1--1--1--1--5--5--5--5--5--5--5--5--| 
       P.M----------------------------------------| 
 1  right                                Turn out 

  (x1) 
e|--------------------------------------------------| 
B|--------------------------------------------------| 
G|--------------------------------------------------| 
D|--1--1--1--1--1--1--1--1--5--5--5--5--5--5--5--5--| 
A|--1--1--1--1--1--1--1--1--5--5--5--5--5--5--5--5--| 
D|--1--1--1--1--1--1--1--1--5--5--5--5--5--5--5--5--| 
       P.M----------------|    P.M----------------| 
 1   my way 

  (x1) 
e|--------------------------------------------------------------------| 
B|--------------------------------------------------------------------| 
G|--------------------------------------------------------------------| 
D|-------1-------1-------1-------1-------5-------5-------5-------5-5--| 
A|--1-1--1--1-1--1--1-1--1--1-1--1--5-5--5--5-5--5--5-5--5--5-5--5-5--| 
D|--1-1--1--1-1--1--1-1--1--1-1--1--5-5--5--5-5--5--5-5--5--5-5--5-5--| 
    P.M     P.M     P.M     P.M     P.M     P.M     P.M     P.M 
 1   I dreamed I stared outside      window and I saw him hurting 

  (x1) 
e|--------------------------------------------------------------------| 
B|--------------------------------------------------------------------| 
G|--------------------------------------------------------------------| 
D|-------1-------1-------1-------1------------------------------------| 
A|--1-1--1--1-1--1--1-1--1--1-1--1--5-5-5-5-5-5-5-5-5-5-5-5-5-5-5-5---| 
D|--1-1--1--1-1--1--1-1--1--1-1--1--5-5-5-5-5-5-5-5-5-5-5-5-5-5-5-5---| 
 1   You screamed but I               hear you, there was nothing 

OUTRO (1:53) 

  (x3) 
e|--------------------------------------------------------------------| 
B|--------------------------------------------------------------------| 
G|--------------------------------------------------------------------| 
D|--1-1-1-1-1-1-1-1-1-1-1-1-1-1-1-1--5-5-5-5-5-5-5-5-5-5-5-5-5-5-5-5--| 
A|--1-1-1-1-1-1-1-1-1-1-1-1-1-1-1-1--5-5-5-5-5-5-5-5-5-5-5-5-5-5-5-5--| 
D|--1-1-1-1-1-1-1-1-1-1-1-1-1-1-1-1--5-5-5-5-5-5-5-5-5-5-5-5-5-5-5-5--| 
 1    but make an anxious mess         awake a nervous wreck 
 2    I'll do right by                 you and I'm in your place 
 3    next, taking back this           screwdriver so I 

  (x1) 
e|--------------------------------------------------------------------| 
B|--------------------------------------------------------------------| 
G|--------------------------------------------------------------------| 
D|--1-1-1-1-1-1-1-1-1-1-1-1-1-1-1-1--5-5-5-5-5-5-5-5--5-5--5--5-------| 
A|--1-1-1-1-1-1-1-1-1-1-1-1-1-1-1-1--5-5-5-5-5-5-5-5--5-5--5--5-------| 
D|--1-1-1-1-1-1-1-1-1-1-1-1-1-1-1-1--5-5-5-5-5-5-5-5--5-5--5--5-------| 
 1   can watch you snap it through      neck          Snap it through 

END ON (2:14): 

  (x1) 
e|-------------------| 
B|-------------------| 
G|-------------------| 
D|--1----------------| 
A|--1--  LET RING  --| 
D|--1----------------| 
 1  neck! 

Compartilhe esta música: novo

QR Code
Copiar