Penalty Kick

You Vandal

Tom: D
------------------------------------------------------------------------------ 
                           PENALTY KICK - YOU VANDAL 
------------------------------------------------------------------------------ 

Tabbed by : Boris Paskhaver (bigbadb) 
Email     : [email protected] 

Tuning: Drop D 
        Low to High (DADGBe) 

Key: D Major 

INTRO (0:01) 

  (x2) 
e|---------------------------------------------------------| 
B|---------------------------------------------------------| 
G|--7-7--7--7--7-7-7--7--7--7--6-6---6--6--6-6-6--6--6--6--| 
D|--7-7--7--7--7-7-7--7--7--7--7-7---7--7--7-7-7--7--7--7--| 
A|--5-5--5--5--5-5-5--5--5--5--4-4---4--4--4-4-4--4--4--4--| 
D|---------------------------------------------------------| 

  (x1) 
e|---------------------------------------------------------| 
B|---------------------------------------------------------| 
G|--7-7--7--7--7-7-7--7--7--7--6---------------------------| 
D|--7-7--7--7--7-7-7--7--7--7--7--  LET RING  ---7--5--4---| 
A|--5-5--5--5--5-5-5--5--5--5--4---------------------------| 
D|---------------------------------------------------------| 
 1                                    Don't pretend 

VERSE (0:16, 1:20) 

  (x1) 
e|--------------------------------------------------------------------| 
B|--------------------------------------------------------------------| 
G|--------------------------------------------------------------------| 
D|--2-2-2-2-2-2-2-2-2-2-2-2-2-2-2-2--5-5-5-5-5-5-5-5-5-5-5-5-5-5-5-5--| 
A|--2-2-2-2-2-2-2-2-2-2-2-2-2-2-2-2--5-5-5-5-5-5-5-5-5-5-5-5-5-5-5-5--| 
D|--2-2-2-2-2-2-2-2-2-2-2-2-2-2-2-2--5-5-5-5-5-5-5-5-5-5-5-5-5-5-5-5--| 
 1   that I ever meant anything to     you, did you ever meant  

  (x1) 
e|--------------------------------------------------------------------| 
B|--------------------------------------------------------------------| 
G|-----------------------------------6-6-6-6-6-6-6-6------------------| 
D|--0-0-0-0-0-0-0-0-0-0-0-0-0-0-0-0--7-7-7-7-7-7-7-7----7--5--4-------| 
A|--0-0-0-0-0-0-0-0-0-0-0-0-0-0-0-0--4-4-4-4-4-4-4-4------------------| 
D|--0-0-0-0-0-0-0-0-0-0-0-0-0-0-0-0-----------------------------------| 
 1   said and I won't                  pre               tend 

  (x1) 
e|--------------------------------------------------------------------| 
B|--------------------------------------------------------------------| 
G|--------------------------------------------------------------------| 
D|--2-2-2-2-2-2-2-2-2-2-2-2-2-2-2-2--5-5-5-5-5-5-5-5-5-5-5-5-5-5-5-5--| 
A|--2-2-2-2-2-2-2-2-2-2-2-2-2-2-2-2--5-5-5-5-5-5-5-5-5-5-5-5-5-5-5-5--| 
D|--2-2-2-2-2-2-2-2-2-2-2-2-2-2-2-2--5-5-5-5-5-5-5-5-5-5-5-5-5-5-5-5--| 
 1   that I'll be ever able to for  give, that I'll ever be able to  

Chorus ONE (0:32) 

  Guitar One (x2) 
e|------------------------------------------------------------| 
B|------------------------------------------------------------| 
G|------------------------------------------------------------| 
D|--0-0--2-2-2--5----------------0-0--2-2-2--5----------------| 
A|--0-0--2-2-2--5--  LET RING  --0-0--2-2-2--5--  LET RING  --| 
D|--0-0--2-2-2--5----------------0-0--2-2-2--5----------------| 

  Guitar Two (x2) 
e|------------------------------------------------------------| 
B|------------------------------------------------------------| 
G|-------------------------------11--11-11-12-11-9-7-7--------| 
D|--0-0--2-2-2--5-----------------x---x--x--x--x-x-x-x--------| 
A|--0-0--2-2-2--5--  LET RING  ---9---9--9-10--9-7-5-5--------| 
D|--0-0--2-2-2--5---------------------------------------------| 
 1                                                      You 
 2  that mine  only              hand that you'd been 
  
CHUGGY McCHUG RIFF (0:46, 1:50) 

  (x2) - Cut off last note on final run 
e|--------------------------------------------------------| 
B|--------------------------------------------------------| 
G|--------------------------------------------------------| 
D|--4-------4-------4---4-5----4-------4-------7-5-4-2-0--| 
A|----5-------5-------5----------5-------5----------------| 
D|------0-0-----0-0----------------0-0-----0-0------------| 
        P.M     P.M                P.M     P.M 

INTERLUDE (1:00) 

  (x2) 
e|--------------------------------------| 
B|--------------------------------------| 
G|--------------------------------------| 
D|--9-9-9-9--7-7-7-7--0-0-0-0--5-5-5-5--| 
A|--9-9-9-9--7-7-7-7--0-0-0-0--5-5-5-5--| 
D|--9-9-9-9--7-7-7-7--0-0-0-0--5-5-5-5--| 
 1  right to my face   you had  nerve 
 2  back to my place   right    I saw 

  (x2) 
e|---------------------------------------| 
B|---------------------------------------| 
G|---------------------------------------| 
D|--9-9-9-9--7-7-7-7--0--0--0---5--------| 
A|--9-9-9-9--7-7-7-7--0--0--0---5--------| 
D|--9-9-9-9--7-7-7-7--0--0--0---5--------| 
 1  wrap your arms   around him  when he 
 2  walked off of the  field 

  (x1) 
e|------------------------------------------------------------| 
B|------------------------------------------------------------| 
G|--7-7--7--7--7-7-7--7--7--7--6------------------------------| 
D|--7-7--7--7--7-7-7--7--7--7--7--  LET RING  ---7-5-4--| 
A|--5-5--5--5--5-5-5--5--5--5--4------------------------------| 
D|------------------------------------------------------------| 
 1                                    Don't pretend 

Repeat VERSE 

Chorus TWO (1:36) 

  Guitar One (x2) 
e|------------------------------------------------------------| 
B|------------------------------------------------------------| 
G|------------------------------------------------------------| 
D|--0-0--2-2-2--5----------------0-0--2-2-2--5----------------| 
A|--0-0--2-2-2--5--  LET RING  --0-0--2-2-2--5--  LET RING  --| 
D|--0-0--2-2-2--5----------------0-0--2-2-2--5----------------| 

  Guitar Two (x2) 
e|------------------------------------------------------------| 
B|------------------------------------------------------------| 
G|-------------------------------11--11-11-12-11-9-7-7--------| 
D|--0-0--2-2-2--5-----------------x---x--x--x--x-x-x-x--------| 
A|--0-0--2-2-2--5--  LET RING  ---9---9--9-10--9-7-5-5--------| 
D|--0-0--2-2-2--5---------------------------------------------| 
 1 
 2  This is my betrayor,      my  friend the soccer 

Repeat CHUGGY McCHUG RIFF 

OUTRO (2:04) 

  (x4) 
e|-------------------------------------------------| 
B|-------------------------------------------------| 
G|-------------------------------------------------| 
D|--0-0-------0-0-------0-0-------5----------------| 
A|--0-0--0-0--0-0--0-0--0-0--0----5--  LET RING  --| 
D|--0-0--0-0--0-0--0-0--0-0--0----5----------------| 
         P.M       P.M      P.M 
 

Compartilhe esta música: novo

QR Code
Copiar