Once

You Vandal

Tom: D
VERSE ONE (0:22) 

  (x2) 
e|----------------------------------------------------------------------| 
B|----------------------------------------------------------------------| 
G|----------------------------------------------------------------------| 
D|--4----------------7----------------0---------------------------------| 
A|--4--  LET RING  --7--  LET RING  --0--  LET RING  -------------------| 
D|--4----------------7----------------0---------------------------------| 
 1  Fina-           lly hit          bottom on that bus ride 
 2  throat, give     up  on          finding anyone to give up 

e|----------------------------------------------------------------------| 
B|----------------------------------------------------------------------| 
G|----------------------------------------------------------------------| 
D|--4----------------7----------------0----------------2----------------| 
A|--4--  LET RING  --7--  LET RING  --0--  LET RING  --2--  LET RING  --| 
D|--4----------------7----------------0----------------2----------------| 
 1  home, fears I  tried not to acknowledge dug their claws into my 
 2  to, it         couldn't be     sincere, couldn't   be nearly as true 

Chorus (0:43, 1:38) 

  (x2) 
e|----------------------------------------------------------------------| 
B|----------------------------------------------------------------------| 
G|----------------------------------------------------------------------| 
D|--4-4-4-4-4-4-4-4--7-7-7-7-7-7-7-7--0-0-0-0-0-0-0-0--2-2-2-2-2-2-2-2--| 
A|--4-4-4-4-4-4-4-4--7-7-7-7-7-7-7-7--0-0-0-0-0-0-0-0--2-2-2-2-2-2-2-2--| 
D|--4-4-4-4-4-4-4-4--7-7-7-7-7-7-7-7--0-0-0-0-0-0-0-0--2-2-2-2-2-2-2-2--| 
 1    I won't         rediscover the   willingness to   trust another 
 2   We only love but once,  we're         only    capable of love 

  Guitar One (x2) 
e|----------------------------------------------| 
B|----------------------------------------------| 
G|----------------------------------------------| 
D|--4---4-4-4-7---7-7-7-0---0-0-0-2---2-2-2-----| 
A|--4---4-4-4-7---7-7-7-0---0-0-0-2---2-2-2-----| 
D|--4---4-4-4-7---7-7-7-0---0-0-0-2---2-2-2-----| 
 1      I won't   the will- to trust another 
 2  only love         only capable    the once 

  Guitar Two (x1) 
e|--------------------------------------------------4-4-4-5-5-5-5--| 
B|--7-7-7-7-5-5-5-5-----------------7-7-7-7-5-5-5-5----------------| 
G|------------------7-7-7-6-6-6------------------------------------| 
D|------------------------------7----------------------------------| 
A|-----------------------------------------------------------------| 
D|-----------------------------------------------------------------| 

e|--------------------------------------------------4-4-4-5-5-5-5--| 
B|--7-7-7-7-5-5-5-5-----------------7-7-7-7-5-5-5-5----------------| 
G|------------------6-6-6-7-6--------------------------------------| 
D|----------------------------7-7----------------------------------| 
A|-----------------------------------------------------------------| 
D|-----------------------------------------------------------------| 

VERSE TWO (1:06) 

  (x2) 
e|--------------------------------------------------| 
B|--------------------------------------------------| 
G|--------------------------------------------------| 
D|--4--4--4--4--2--2--2--2--0--0--0--0--2--2--2--2--| 
A|--4--4--4--4--2--2--2--2--0--0--0--0--2--2--2--2--| 
D|--4--4--4--4--2--2--2--2--0--0--0--0--2--2--2--2--| 
 1     When    say you     same       anybody 
 2  else,    you're         me or       lying to 

  (x2) 
e|-------------------------------------------------------------------------------| 
B|-------------------------------------------------------------------------------| 
G|-------------------------------------------------------------------------------| 
D|-11-11-11-11--14-14-14-14--9-9-9-9--7-7-7-7--7-7-7-7-7-7-7-7--9-9-9-9-9-9-9-9--| 
A|--9--9--9--9--12-12-12-12--7-7-7-7--4-4-4-4--5-5-5-5-5-5-5-5--7-7-7-7-7-7-7-7--| 
D|-------------------------------------------------------------------------------| 
   P.M-------------------------------------------------------------------------| 

  (x2)   
e|----------------------------------------------| 
B|----------------------------------------------| 
G|----------------------------------------------| 
D|--7---------------9-------6----7--------9-----| 
A|----------------------------------------------| 
D|----------------------------------------------| 
 1  means you never felt it to begin with  
 2  what I thought  held never existed 

Repeat Chorus 

BRIDGE (2:00): 

  Guitar One (x2) 
e|-------------------------------------------------------------------| 
B|-------------------------------------------------------------------| 
G|-------------------------------------------------------------------| 
D|--4---------------2---------------0---------------2----------------| 
A|--4-- LET RING ---2-- LET RING ---0-- LET RING ---2---- LET RING --| 
D|--4---------------2---------------0---------------2----------------| 
 1  once 
 2  once 

  Guitar Two (x2) 
e|----------------------------------------------4-4-4-5-5-5-5p4-4-4--| 
B|--7-7-7-5-5-5---------------------7-7-7-5-5-5----------------------| 
G|--------------7-7-7-6-6-6------------------------------------------| 
D|--------------------------7-7-7-7----------------------------------| 
A|-------------------------------------------------------------------| 
D|-------------------------------------------------------------------| 

  Guitar One (x1) 
e|----------------------------------------------------------------------| 
B|----------------------------------------------------------------------| 
G|----------------------------------------------------------------------| 
D|--4-4-4-4-4-4-4-4--2-2-2-2-2-2-2-2--0-0-0-0-4-4-4-4--2-2-2-2-2-2-2-2--| 
A|--4-4-4-4-4-4-4-4--2-2-2-2-2-2-2-2--0-0-0-0-4-4-4-4--2-2-2-2-2-2-2-2--| 
D|--4-4-4-4-4-4-4-4--2-2-2-2-2-2-2-2--0-0-0-0-4-4-4-4--2-2-2-2-2-2-2-2--| 

e|----------------------------------------------------------------------| 
B|----------------------------------------------------------------------| 
G|----------------------------------------------------------------------| 
D|--4-4-4-4-4-4-4-4--2-2-2-2-2-2-2-2--0-0-0-0-0-0-0-0--2-2-2-2-2-2-2-2--| 
A|--4-4-4-4-4-4-4-4--2-2-2-2-2-2-2-2--0-0-0-0-0-0-0-0--2-2-2-2-2-2-2-2--| 
D|--4-4-4-4-4-4-4-4--2-2-2-2-2-2-2-2--0-0-0-0-0-0-0-0--2-2-2-2-2-2-2-2--| 

  Guitar Two (x1) 
e|--5------7------9---------5-----7----5---4---2---4---5--| 
B|--------------------------------------------------------| 
G|--------------------------------------------------------| 
D|--------------------------------------------------------| 
A|--------------------------------------------------------| 
D|--------------------------------------------------------| 

OUTRO (2:22): 

  (x2) 
e|----------------------------------------------------------------------| 
B|----------------------------------------------------------------------| 
G|----------------------------------------------------------------------| 
D|--4-4-4-4-4-4-4-4--2-2-2-2-2-2-2-2--0-0-0-0-0-0-0-0--2-2-2-2-2-2-2-2--| 
A|--4-4-4-4-4-4-4-4--2-2-2-2-2-2-2-2--0-0-0-0-0-0-0-0--2-2-2-2-2-2-2-2--| 
D|--4-4-4-4-4-4-4-4--2-2-2-2-2-2-2-2--0-0-0-0-0-0-0-0--2-2-2-2-2-2-2-2--| 

  (x1) 
e|--------------------------------------------------------| 
B|--------------------------------------------------------| 
G|--------------------------------------------------------| 
D|--4-4--4-4-4--4-4--4-4-4--2-2-2-2---4---2---0-----0--0--| 
A|--4-4--4-4-4--4-4--4-4-4--2-2-2-2---4---2---0-----0--0--| 
D|--4-4--4-4-4--4-4--4-4-4--2-2-2-2---4---2---0-----0--0--| 
                            P.M----|                P.M-| 

Compartilhe esta música: novo

QR Code
Copiar