Knowing Is Half The Battle

You Vandal

Tom: D
INTRO SHENANIGANS (0:00): 

  (x1) 
e|--------------------| 
B|--------------------| 
G|--------------------| 
D|--2--4--5--4--7--5--| 
A|--2--4--5--4--7--5--| 
D|--2--4--5--4--7--5--| 
    P.M-------------| 

  (x2) 
e|--------------------------------------------------------| 
B|--------------------------------------------------------| 
G|--7-7-7-7--7-7-7-7-------11-11-11-11--11-11-11-11-------| 
D|--x-x-x-x--x-x-x-x--5/7---x--x--x--x---x--x--x--x--9/7--| 
A|--5-5-5-5--5-5-5-5--5/7---9--9--9--9---9--9--9--9--9/7--| 
D|--------------------5/7----------------------------9/7--| 

e|--------------------------------------------------------| 
B|--------------------------------------------------------| 
G|--7-7-7-7--7-7-7-7--------------------------------------| 
D|--x-x-x-x--x-x-x-x--5/7---2--4--5--4--7--5--------------| 
A|--5-5-5-5--5-5-5-5--5/7---2--4--5--4--7--5--------------| 
D|--------------------5/7---2--4--5--4--7--5--------------| 
                            P.M-------------| 

  Guitar One  (x1) 
e|--------------------------------------------------------| 
B|--------------------------------------------------------| 
G|--------------------------------------------------------| 
D|--0----------------5----------------2--4--5--4----------| 
A|--0--  LET RING  --5--  LET RING  --2--4--5--4----------| 
D|--0----------------5----------------2--4--5--4----------| 
                                      P.M-------| 
  Guitar Two  (x1) 
e|--------------------------------------------------------| 
B|--------------------------------------------------------| 
G|--7-----------------------------------------------------| 
D|--x--  LET RING  --5----------------2--4--5--4----------| 
A|--5----------------5--  LET RING  --2--4--5--4----------| 
D|-------------------5----------------2--4--5--4----------| 
                                      P.M-------| 
                                      This one goes out to 

VERSE ONE (0:21) 

  (x2) 
e|-------------------------------------------------------------------| 
B|-------------------------------------------------------------------| 
G|-------------------------------------------------------------------| 
D|--0-0-0-0-0-0-0-0-0-0-0-0-0-0-0-0-7-7-7-7-7-7-7-7-7-7-7-7-7-7-7-7--| 
A|--0-0-0-0-0-0-0-0-0-0-0-0-0-0-0-0-7-7-7-7-7-7-7-7-7-7-7-7-7-7-7-7--| 
D|--0-0-0-0-0-0-0-0-0-0-0-0-0-0-0-0-7-7-7-7-7-7-7-7-7-7-7-7-7-7-7-7--| 
 1  every girl who's done me wrong   made me write these godforsaken 
 2  day               this one goes out to every girl with something 

e|-------------------------------------------------------------------| 
B|-------------------------------------------------------------------| 
G|-------------------------------------------------------------------| 
D|--2-2-2-2-2-2-2-2-2-2-2-2-2-2-2-2-4-4-4-4-4-4-4-4-5-5-5-5-5-5-5-5--| 
A|--2-2-2-2-2-2-2-2-2-2-2-2-2-2-2-2-4-4-4-4-4-4-4-4-5-5-5-5-5-5-5-5--| 
D|--2-2-2-2-2-2-2-2-2-2-2-2-2-2-2-2-4-4-4-4-4-4-4-4-5-5-5-5-5-5-5-5--| 
 1   songs, should I drop your       cross your      never see the 
 2   negative             to         say                you need to 

  Guitar Two (x2) joins in at 0:32 
e|--10--------10--------10------12-10----12--| 
B|-----10---7----10---7----10---------10-----| 
G|-------------------------------------------| 
D|-------------------------------------------| 
A|-------------------------------------------| 
D|-------------------------------------------| 

INTERLUDE (0:43) 

  (x1) 
e|--------------------------------------------------------------------| 
B|--------------------------------------------------------------------| 
G|--------------------------------------------------------------------| 
D|--0--0-0--------0-7--7-7--------7-4--4-4-------4-2--2-2--2----------| 
A|--0--0-0--x-x---0-7--7-7--x-x---7-4--4-4--x-x--4-2--2-2--2----------| 
D|--0--0-0--x-x---0-7--7-7--x-x---7-4--4-4--x-x--4-2--2-2--2----------| 
 1                                                        You need to                      

  Guitar One (x1) 
e|------------------------------------------------------------------------| 
B|------------------------------------------------------------------------| 
G|------------------------------------------------------------------------| 
D|--0---------------------------------------------------------------------| 
A|--0--  LET RING  -------------------------------------------------------| 
D|--0---------------------------------------------------------------------| 

  Guitar Two (x1) 
e|------------------------------------------------------------------------| 
B|------------------------------------------------------------------------| 
G|--7----------------14----------------11----------------9----------------| 
D|--x--  LET RING  ---x--  LET RING  ---x--  LET RING  --x--  LET RING  --| 
A|--5----------------12-----------------9----------------7----------------| 
D|------------------------------------------------------------------------| 
 1  know!                                            This one goes out to 

VERSE TWO (0:53) 

  (x2) 
e|-------------------------------------------------------------------| 
B|-------------------------------------------------------------------| 
G|-------------------------------------------------------------------| 
D|--0-0-0-0-0-0-0-0-0-0-0-0-0-0-0-0-7-7-7-7-7-7-7-7-7-7-7-7-7-7-7-7--| 
A|--0-0-0-0-0-0-0-0-0-0-0-0-0-0-0-0-7-7-7-7-7-7-7-7-7-7-7-7-7-7-7-7--| 
D|--0-0-0-0-0-0-0-0-0-0-0-0-0-0-0-0-7-7-7-7-7-7-7-7-7-7-7-7-7-7-7-7--| 
 1   every girl who's blown me off   all the despicable shit they 
 2                    this one goes  out to every girl who's under- 

e|-------------------------------------------------------------------| 
B|-------------------------------------------------------------------| 
G|-------------------------------------------------------------------| 
D|--2-2-2-2-2-2-2-2-2-2-2-2-2-2-2-2-4-4-4-4-4-4-4-4-5-5-5-5-5-5-5-5--| 
A|--2-2-2-2-2-2-2-2-2-2-2-2-2-2-2-2-4-4-4-4-4-4-4-4-5-5-5-5-5-5-5-5--| 
D|--2-2-2-2-2-2-2-2-2-2-2-2-2-2-2-2-4-4-4-4-4-4-4-4-5-5-5-5-5-5-5-5--| 
 1   how can you so callously        stomp all over  heart of 
 2   estimated                       me              you need to 

INTERLUDE (1:13) 

  Guitar One (x1) 
e|---------------------------------------------------------------| 
B|---------------------------------------------------------------| 
G|---------------------------------------------------------------| 
D|--0----------------7----------------2----------------4----5----| 
A|--0--  LET RING  --7--  LET RING  --2--  LET RING  --4----5----| 
D|--0----------------7----------------2----------------4----5----| 

  Guitar Two (x2) 
e|--10--------10--------10------12-10----12--| 
B|-----10---7----10---7----10---------10-----| 
G|-------------------------------------------| 
D|-------------------------------------------| 
A|-------------------------------------------| 
D|-------------------------------------------| 

INTERLUDE, PART TWO (1:23) 

  Guitar One (x1) 
e|--------------------------------------------------------------------------| 
B|--------------------------------------------------------------------------| 
G|--------------------------------------------------------------------------| 
D|--0----------------7----------------2----------------4----5---------------| 
A|--0--  LET RING  --7--  LET RING  --2--  LET RING  --4----5---------------| 
D|--0----------------7----------------2----------------4----5---------------| 
 1                                                             You need to  

   Guitar Two (x1) 
e|-------------------------------------------------------------------------------| 
B|-------------------------------------------------------------------------------| 
G|--7---------7-7-----7---------7-7-----9---------9-9-----9---------9-9----------| 
D|--x---------x-x-----x---------x-x-----x---------x-x-----x---------x-x----------| 
A|--5--5-5-5--5-5--5--5--5-5-5--5-5--5--7--7-7-7--7-7--7--7--7-7-7--7-7--7-------| 
D|-------------------------------------------------------------------------------| 
       P.M--|     P.M    P.M--|     P.M    P.M--|     P.M    P.M--|     P.M 

e|-------------------------------------------------------------------------------| 
B|-------------------------------------------------------------------------------| 
G|--9---------9-9-----9---------9-9----11--------11-11---12-----------12-12------| 
D|--x---------x-x-----x---------x-x-----x---------x--x----x------------x--x------| 
A|--7--7-7-7--7-7--7--7--7-7-7--7-7--7--9--9-9-9--9--9-9-10--10-10-10-10-10--10--| 
D|-------------------------------------------------------------------------------| 
       P.M--|     P.M    P.M--|     P.M    P.M--|     P.M    P.M-----|      P.M 

OUTRO (1:32) 

  (x1) 
e|----------------------------------------------------| 
B|----------------------------------------------------| 
G|----------------------------------------------------| 
D|--0-0---------7--7-7---------4--4-4---------2--2-2--| 
A|--0-0--x-x-x--7--7-7--x-x-x--4--4-4--x-x-x--2--2-2--| 
D|--0-0--x-x-x--7--7-7--x-x-x--4--4-4--x-x-x--2--2-2--| 
 1  know                       I won't play the part 

  (x3) 
e|-----------------------------------------------------------------| 
B|-----------------------------------------------------------------| 
G|-----------------------------------------------------------------| 
D|--0--0-0--0-0-0---7--7-7--7-7-7---4--4-4--4-4-4---2--2-2--2-2-2--| 
A|--0--0-0--0-0-0---7--7-7--7-7-7---4--4-4--4-4-4---2--2-2--2-2-2--| 
D|--0--0-0--0-0-0---7--7-7--7-7-7---4--4-4--4-4-4---2--2-2--2-2-2--| 
 1                            you  blindly let own   your heart 
 2   know                           I won't the play the part of 
 3   ass            hole      you  blindly let own   your heart 

  (x1) 
e|---------------------------------------------------------------------------------| 
B|---------------------------------------------------------------------------------| 
G|---------------------------------------------------------------------------------| 
D|--0--0-0--0-0-0---7--7-7--7-7-7---4--4-4--4-4-4---2--4--5--4----0----------------| 
A|--0--0-0--0-0-0---7--7-7--7-7-7---4--4-4--4-4-4---2--4--5--4----0--  LET RING  --| 
D|--0--0-0--0-0-0---7--7-7--7-7-7---4--4-4--4-4-4---2--4--5--4----0----------------| 
                                                    P.M-------| 
 1  know                                           I won't play  part 

Compartilhe esta música: novo

QR Code
Copiar