Get In The Van

You Vandal

Tom: D
MAIN RIFF (0:01, 0:41): 

  Guitar One (x4) 
e|---------------------------| 
B|---------------------------| 
G|---------------------------| 
D|--0-0----7-7--4-4----5-5---| 
A|--0-0----7-7--4-4----5-5---| 
D|--0-0----7-7--4-4----5-5---| 

  Guitar Two (x2) 
e|---------------------------| 
B|---------------------------| 
G|--7-7--14-14-11-11--12-12--| 
D|--x-x---x--x--x--x---x--x--| 
A|--5-5--12-12--9--9--10-10--| 
D|---------------------------| 

VERSE ONE (0:12) 

  (x1) 
e|---------------------------------------------------------------------| 
B|---------------------------------------------------------------------| 
G|---------------------------------------------------------------------| 
D|--9-9-----5-5-----4-4-----5-5-----9-9-----5-5-----4-4-----5-5--------| 
A|--9-9-----5-5-----4-4-----5-5-----9-9-----5-5-----4-4-----5-5--------| 
D|--9-9-----5-5-----4-4-----5-5-----9-9-----5-5-----4-4-----5-5--------| 
 1  could predicted  find   Raleigh NC     prettiest girls  ever seen 

  (x2) 
e|---------------------------------------------------------------------| 
B|---------------------------------------------------------------------| 
G|---------------------------------------------------------------------| 
D|--0-0-0-0-0-0-0-0--7-7-7-7-7-7-7-7------5-5-----5-5-----5-5-----5-5--| 
A|--0-0-0-0-0-0-0-0--7-7-7-7-7-7-7-7------5-5-----5-5-----5-5-----5-5--| 
D|--0-0-0-0-0-0-0-0--7-7-7-7-7-7-7-7--5-5-5-5-5-5-5-5-5-5-5-5-5-5-5-5--| 
                                      P.M     P.M     P.M     P.M 
 1   seen      You'll call me on the phone                        Don't 
 2  -get when we      Michigan that    be in different time zones 

  (x1) 
e|---------------------------------------------------------------------| 
B|---------------------------------------------------------------------| 
G|---------------------------------------------------------------------| 
D|--9-9-----5-5-----4-4-----5-5-----9-9-----5-5-----4-4-----5-5--------| 
A|--9-9-----5-5-----4-4-----5-5-----9-9-----5-5-----4-4-----5-5--------| 
D|--9-9-----5-5-----4-4-----5-5-----9-9-----5-5-----4-4-----5-5--------| 
 1  went to Massachusetts  didn't   hear    damn  person   wicked 

  (x1) 
e|---------------------------------------------------------------------| 
B|---------------------------------------------------------------------| 
G|---------------------------------------------------------------------| 
D|--0-0-0-0-0-0-0-0--7-7-7-7-7-7-7-7------5-5-----5-5-----5-5-----5-5--| 
A|--0-0-0-0-0-0-0-0--7-7-7-7-7-7-7-7------5-5-----5-5-----5-5-----5-5--| 
D|--0-0-0-0-0-0-0-0--7-7-7-7-7-7-7-7--5-5-5-5-5-5-5-5-5-5-5-5-5-5-5-5--| 
 1                   Talk about  a    bummer                  not to 

  (x1) 
e|---------------------------------------------------------------| 
B|---------------------------------------------------------------| 
G|---------------------------------------------------------------| 
D|--0-0-0-0-0-0-0-0--7-7-7-7-7-7-7-7------5-5-----5-5------------| 
A|--0-0-0-0-0-0-0-0--7-7-7-7-7-7-7-7------5-5-----5-5-5-5-5-5-5--| 
D|--0-0-0-0-0-0-0-0--7-7-7-7-7-7-7-7--5-5-5-5-5-5-5-5-5-5-5-5-5--| 
                                      P.M     P.M     P.M-----| 
 1   mention that your attitude is    ruining    my    summer 
                                       
Repeat MAIN RIFF 

VERSE TWO (0:51) 

  (x4) 
e|---------------------------------------------------------------------| 
B|---------------------------------------------------------------------| 
G|---------------------------------------------------------------------| 
D|--9-9-9-9-9-9-9-9--7-7-7-7-7-7-7-7--5-5-5-5-5-5-5-5-5-5-5-5-5-5-5-5--| 
A|--9-9-9-9-9-9-9-9--7-7-7-7-7-7-7-7--5-5-5-5-5-5-5-5-5-5-5-5-5-5-5-5--| 
D|--9-9-9-9-9-9-9-9--7-7-7-7-7-7-7-7--5-5-5-5-5-5-5-5-5-5-5-5-5-5-5-5--| 
    P.M--------------------------------------------------------------| 
 1   stories          you can't        share with anyone because 
 2   no one           seems to         care 
 3   stories          you can't        share with anyone because  
 4   no one           seems to         care or understand at all 

MAIN RIFF, ALTERNATE (1:12, 1:32) 

  Guitar One (x3)            | (x1) 
e|---------------------------|------------------------------| 
B|---------------------------|------------------------------| 
G|---------------------------|------------------------------| 
D|--0-0----7-7--4-4----5-5---|--0-0---7---4--4--4--4--4/5---| 
A|--0-0----7-7--4-4----5-5---|--0-0---7---4--4--4--4--4/5---| 
D|--0-0----7-7--4-4----5-5---|--0-0---7---4--4--4--4--4/5---| 

  Guitar Two (x1)            | (x1) 
e|---------------------------|------------------------------| 
B|---------------------------|------------------------------| 
G|--7-7--14-14-11-11--12-12--|--7-7--14--11-11-11-11-11/12--| 
D|--x-x---x--x--x--x---x--x--|--x-x---x---x--x--x--x--x--x--| 
A|--5-5--12-12--9--9--10-10--|--5-5--12---9--9--9--9--9/10--| 
D|---------------------------|------------------------------| 

BRIDGE (1:22) 

  (x1) 
e|-------------------------------------------------------------------| 
B|-------------------------------------------------------------------| 
G|-------------------------------------------------------------------| 
D|--9-9-9-9-9-9-9-9-7-7-7-7-7-7-7-7-9-9-9-9-9-9-9-9-5-5-5-5-5-5-5-5--| 
A|-------------------------------------------------------------------| 
D|-------------------------------------------------------------------| 
    P.M------------------------------------------------------------| 
 1  Stories           you can't       share        with anyone 

  (x1) 
e|-------------------------------------------------------------------| 
B|-------------------------------------------------------------------| 
G|-------------------------------------------------------------------| 
D|--9-9-9-9-9-9-9-9-7-7-7-7-7-7-7-7-9-9-9-9-9-9-9-9---5-5--5-5-5-5---| 
A|----------------------------------------------------5-5--5-5-5-5---| 
D|----------------------------------------------------5-5--5-5-5-5---| 
    P.M--------------------------------------------| 
 1   no one           seems to            care 

Repeat MAIN RIFF, ALTERNATE 

Compartilhe esta música: novo

QR Code
Copiar