Delta Beta Rush Week

You Vandal

Tom: D
Tuning: Drop D 
        Low to High (DADGBe) 

Key: D Major 

INTRO RIFF (0:00) 

  Guitar One (x2) 
e|-------------------------------------------------------------------------| 
B|-------------------------------------------------------------------------| 
G|-------------------------------------------------------------------------| 
D|--12--12-12-12--12--12-12--0--7--7-7-7--9--9-9--0--5-5--5--5--5-5--5--5--| 
A|--12--12-12-12--12--12-12--0--7--7-7-7--9--9-9--0--5-5--5--5--5-5--5--5--| 
D|--12--12-12-12--12--12-12--0--7--7-7-7--9--9-9--0--5-5--5--5--5-5--5--5--| 

  Guitar Two (x1) (0:05)  
e|-------------------------------------------------------------------------| 
B|-------------------------------------------------------------------------| 
G|--11-----------------------------------------------7---------------------| 
D|---x--  LET RING  ---------------------------------x--  LET RING  -------| 
A|---9-----------------------------------------------5---------------------| 
D|-------------------------------------------------------------------------| 

VERSE ONE (0:11) 

  (x2) 
e|---------------------------------------------------------------------------------| 
B|---------------------------------------------------------------------------------| 
G|---------------------------------------------------------------------------------| 
D|--12--12-12-12--12--12-12-----7--7-7-7--9--9-9--5-5-5-5-5-5-5-5-5-5-5-5-5-5-5-5--| 
A|--12--12-12-12--12--12-12--0--7--7-7-7--9--9-9--5-5-5-5-5-5-5-5-5-5-5-5-5-5-5-5--| 
D|--12--12-12-12--12--12-12--0--7--7-7-7--9--9-9--5-5-5-5-5-5-5-5-5-5-5-5-5-5-5-5--| 
 1  it                           this is all you   ask of yourself, then I'm 
 2  glad you're doing             well             glad but I can't tell, it's 

  (x2) 
e|---------------------------------------------------------------------------------| 
B|---------------------------------------------------------------------------------| 
G|---------------------------------------------------------------------------------| 
D|--12-12--12--12----7-7-7---9-9-9--9--5-5-5-5-5-5-5-5-5-5-5-5-5-5-5-5-------------| 
A|--12-12--12--12----7-7-7---9-9-9--9--5-5-5-5-5-5-5-5-5-5-5-5-5-5-5-5-------------| 
D|--12-12--12--12----7-7-7---9-9-9--9--5-5-5-5-5-5-5-5-5-5-5-5-5-5-5-5-------------| 
 1    say             exactly what my    expectations were, I 
 2   never            was     too        sure 

Chorus (0:35, 1:37) 

  (x2) 
e|-----------------------------------------------------------------| 
B|-----------------------------------------------------------------| 
G|-----------------------------------------------------------------| 
D|--9--9--9-9-9-0--5--5-5--5--5---0-0--0-0-0--0-0-0--0-0-0--0------| 
A|--9--9--9-9-9-0--5--5-5--5--5---0-0--0-0-0--0-0-0--0-0-0--0------| 
D|--9--9--9-9-9-0--5--5-5--5--5---0-0--0-0-0--0-0-0--0-0-0--0------| 
 1                              Let's talk about the days that 
 2   was a time I  felt more      now that time is far behind 

e|-----------------------------------------------------------------| 
B|-----------------------------------------------------------------| 
G|-----------------------------------------------------------------| 
D|--9--9--9-9-9-0--5--5-5--5--5--0-0-0-0-0-0-0-0--7-7-7-7-7-7-7-7--| 
A|--9--9--9-9-9-0--5--5-5--5--5--0-0-0-0-0-0-0-0--7-7-7-7-7-7-7-7--| 
D|--9--9--9-9-9-0--5--5-5--5--5--0-0-0-0-0-0-0-0--7-7-7-7-7-7-7-7--| 
 1    gone                        Thank god you   left West Palm 
 2  I know    everything about   really going     on (inside your) 

VERSE TWO (0:54) 

  (x1) 
e|----------------------------------------------------------------------| 
B|----------------------------------------------------------------------| 
G|----------------------------------------------------------------------| 
D|--0----------------5----------------9----------------7----------------| 
A|--0--  LET RING  --5--  LET RING  --9--  LET RING  --7--  LET RING  --| 
D|--0----------------5----------------9----------------7----------------| 
 1  say that we're   always by your   I don't wanna    tell that lie 

  (x1) 
e|--------------------------------------------------------| 
B|--------------------------------------------------------| 
G|--------------------------------------------------------| 
D|--0-0--0--0--0-0-0--0--0--0--5-5--5--5--5-5-5--5--5--5--| 
A|--0-0--0--0--0-0-0--0--0--0--5-5--5--5--5-5-5--5--5--5--| 
D|--0-0--0--0--0-0-0--0--0--0--5-5--5--5--5-5-5--5--5--5--| 
 1  you                     or  me                   

  (x1) 
e|--------------------------------------------------------| 
B|--------------------------------------------------------| 
G|--------------------------------------------------------| 
D|--9-9--9--9--9-9-9--9--9--9--7-7--7--7--7-7-7--7--7--7--| 
A|--9-9--9--9--9-9-9--9--9--9--7-7--7--7--7-7-7--7--7--7--| 
D|--9-9--9--9--9-9-9--9--9--9--7-7--7--7--7-7-7--7--7--7--| 
 1  order of things             way it has to be? 

MINI BREAKDOWN (1:16) 

  (x1) 
e|-----------------------------------------------------------------------------| 
B|-----------------------------------------------------------------------------| 
G|-------------------------------------------------------11-11-11-14-14-14-14--| 
D|--7-5---7-5---7-5---9-9-9--7-7-7--5---7-5---7-5---7-5---x--x--x--x--x--x--x--| 
A|--7-5---7-5---7-5---9-9-9--7-7-7--5---7-5---7-5---7-5---9--9--9-12-12-12-12--| 
D|--7-5---7-5---7-5---9-9-9--7-7-7--5---7-5---7-5---7-5------------------------| 
 1                 The way it has to be 

  (x1) 
e|-----------------------------------------------------------------------------| 
B|-----------------------------------------------------------------------------| 
G|--9-7---9-7---9-7--11-11-11--9-9-9--7---9-7---9-7---9-7--11-11-11--9-9-9--7--| 
D|--7-5---7-5---7-5---9--9--9--7-7-7--5---7-5---7-5---7-5---9--9--9--7-7-7--5--| 
A|--7-5---7-5---7-5---9--9--9--7-7-7--5---7-5---7-5---7-5---9--9--9--7-7-7--5--| 
D|--7-5---7-5---7-5---9--9--9--7-7-7--5---7-5---7-5---7-5---9--9--9--7-7-7--5--| 
 1  T-shirts, beer     social events                       only things you need 

Repeat Chorus 

END ON (1:59) 

  (x1) 
e|-------------------| 
B|-------------------| 
G|-------------------| 
D|--5----------------| 
A|--5--  LET RING  --| 
D|--5----------------| 
 1  heart 

Compartilhe esta música: novo

QR Code
Copiar