Cursed

You Vandal

Tom: D
INTRO RIFF (0:00, 0:31): 

  Guitar Two (x2) 
e|-----------------------------------------------------------------------------------| 
B|-----------------------------------------------------------------------------------| 
G|--12-12---12-11-11---11-12-12---12-11-11---11-12-12---12-11-11---11-12-12---12-11--| 
D|---x--x----x--x--x----x--x--x----x--x--x----x--x--x----x--x--x----x--x--x----x--x--| 
A|--10-10---10--9--9----9-10-10---10--9--9----9-10-10---10--9--9----9-10-10---10--9--| 
D|-----------------------------------------------------------------------------------| 

  Guitar One (x1) (0:05) 
e|----------------------| 
B|----------------------| 
G|----------------------| 
D|--0-------------------| 
A|--0--  LET RING  -----| 
D|--0-------------------| 

VERSE ONE (0:10) 

  Guitar One (x4) 
e|---------------------------------------------------------------------| 
B|---------------------------------------------------------------------| 
G|---------------------------------------------------------------------| 
D|--5-5-5-5-5-5-5-5-4-4-4-4-2-2-2-2--9-9-9-9-9-9-9-9--7-7-7-7-7-7-7-7--| 
A|--5-5-5-5-5-5-5-5-4-4-4-4-2-2-2-2--9-9-9-9-9-9-9-9--7-7-7-7-7-7-7-7--| 
D|--5-5-5-5-5-5-5-5-4-4-4-4-2-2-2-2--9-9-9-9-9-9-9-9--7-7-7-7-7-7-7-7--| 
 1   This is      always  wanted      won't be long   long forgotten 
 2   Make it home, still beyond the   clock 
 3   One of us is always leaving     never together    unless I'm 
 4   Make it home, take the weekend   off              take the 

  Guitar Two (x2) 
e|--------------------------------------------------------------------------------| 
B|--------------------------------------------------------------------------------| 
G|--7-7-7-7-7-7-7-7-6-6-6-6-4-4-4-4--11-11-11-11-11-11-11-11--14--11--9--11-------| 
D|--x-x-x-x-x-x-x-x-x-x-x-x-x-x-x-x---x--x--x--x--x--x--x--x---x---x--x---x-------| 
A|--5-5-5-5-5-5-5-5-4-4-4-4-2-2-2-2---9--9--9--9--9--9--9--9--12---9--7---9-------| 
D|--------------------------------------------------------------------------------| 

e|--------------------------------------------------------------------------------| 
B|--------------------------------------------------------------------------------| 
G|--7-7-7-7-7-7-7-7-6-6-6-6-4-4-4-4--11-11-11-11-11--12-11--9-9-9-9-9-9-9-9-------| 
D|--x-x-x-x-x-x-x-x-x-x-x-x-x-x-x-x---x--x--x--x--x---x--x--x-x-x-x-x-x-x-x-------| 
A|--5-5-5-5-5-5-5-5-4-4-4-4-2-2-2-2---9--9--9--9--9--10--9--7-7-7-7-7-7-7-7-------| 
D|--------------------------------------------------------------------------------| 

Repeat INTRO RIFF 

Chorus (0:36, 1:30) 

  Guitar One (x2) 
e|--------------------------------------------------| 
B|--------------------------------------------------| 
G|--------------------------------------------------| 
D|--0-0---------2-2---------5-5---------5-5---------| 
A|--0-0--0-0-0--2-2--2-2-2--5-5--5-5-5--5-5--5-5-5--| 
D|--0-0--0-0-0--2-2--2-2-2--5-5--5-5-5--5-5--5-5-5--| 
         P.M--|      P.M--|      P.M--|      P.M--| 
 1  Cursed with    awful     timing 
 2  You can      always     find        me 

e|--------------------------------------------------------| 
B|--------------------------------------------------------| 
G|--------------------------------------------------------| 
D|--9-9---------0-0---------5-5-----------5-5-------------| 
A|--9-9--9-9-9--0-0--0-0-0--5-5--5-5-5/7--5-5--5-5-5h7p5--| 
D|--9-9--9-9-9--0-0--0-0-0--5-5--5-5-5/7--5-5--5-5-5h7p5--| 
         P.M--|      P.M--|      P.M           P.M 
 1          So if I  pick   phone 
 2             At home      alone 

  Guitar Two (x8) 
e|---------------------------------| 
B|---------------------------------| 
G|--14-14--9-9-9--11-11-11--7-7-7--| 
D|---x--x--x-x-x---x--x--x--x-x-x--| 
A|--12-12--7-7-7---9--9--9--5-5-5--| 
D|---------------------------------| 

POSTChorus (0:58) 

  Guitar One (x1) 
e|-------------------------------------------------------------| 
B|-------------------------------------------------------------| 
G|-------------------------------------------------------------| 
D|--14-12-11-12-11h12p11p0--5--5-5--5--14-12-11-12-11h12p11p0--| 
A|--------------------------5--5-5--5--------------------------| 
D|--------------------------5--5-5--5--------------------------| 

  Guitar Two (x1) 
e|-------------------------------------------------------------| 
B|-------------------------------------------------------------| 
G|-------------------------------------12-11--9-11--9h11p9p7---| 
D|--14-12-11-12-11h12p11p0--5--5-5--5--------------------------| 
A|--------------------------5--5-5--5--------------------------| 
D|--------------------------5--5-5--5--------------------------| 

VERSE TWO (1:03) 

  (x3) 
e|-----------------------------------------------------------------| 
B|-----------------------------------------------------------------| 
G|-----------------------------------------------------------------| 
D|--9--9-9--9-9-9--0--0-0--0-0-0--5--5-5--5-5-5-5--5-5-5-5--5-5-5--| 
A|--9--9-9--9-9-9--0--0-0--0-0-0--5--5-5--5-5-5-5--5-5-5-5--5-5-5--| 
D|--9--9-9--9-9-9--0--0-0--0-0-0--5--5-5--5-5-5-5--5-5-5-5--5-5-5--| 
 1              At home in bed   alone 
 2              Disappointing     here for me to hold 
 3       My life's the space      sheets, vacant and 

  Guitar One (x2) 
e|-----------------------------------------------------------| 
B|-----------------------------------------------------------| 
G|-----------------------------------------------------------| 
D|--9--9-9--9-9-9-0--0-0--0-0-0-5--5-5--5-5-5-5--5-5--5-5-5--| 
A|--9--9-9--9-9-9-0--0-0--0-0-0-5--5-5--5-5-5-5--5-5--5-5-5--| 
D|--9--9-9--9-9-9-0--0-0--0-0-0-5--5-5--5-5-5-5--5-5--5-5-5--| 
 1  cold                                         vacant and 
 2  cold 

  Guitar Two (x2) 
e|--------------------------------------------------------------------------------| 
B|--------------------------------------------------------------------------------| 
G|--11--11-11--11-11-9-11--11-11--11-11-9-11--11-11--11-11-9-12--12-12--12-12-12--| 
D|---x---x--x---x--x-x--x---x--x---x--x-x--x---x--x---x--x-x--x---x--x---x--x--x--| 
A|---9---9--9---9--9-7--9---9--9---9--9-7--9---9--9---9--9-7-10--10-10--10-10-10--| 
D|--------------------------------------------------------------------------------| 

   Guitar One (x1) 
e|--------------------------------| 
B|--------------------------------| 
G|--------------------------------| 
D|---5---5--5---5---5---5--5---5--| 
A|---5---5--5---5---5---5--5---5--| 
D|---5---5--5---5---5---5--5---5--| 

   Guitar Two (x1) 
e|--------------------------------| 
B|--------------------------------| 
G|--12--12-12--12--14--14-14--14--| 
D|---x---x--x---x---x---x--x---x--| 
A|--10--10-10--10--12--12-12--12--| 
D|--------------------------------| 
 1            it's cold 

Repeat Chorus 

FINAL Chorus (1:52) 

  Guitar One (x2) 
e|---------------------------------------------------------------------| 
B|---------------------------------------------------------------------| 
G|---------------------------------------------------------------------| 
D|--0-0-0-0-0-0-0-0--2-2-2-2-2-2-2-2--5-5-5-5-5-5-5-5-5-5-5-5-5-5-5-5--| 
A|--0-0-0-0-0-0-0-0--2-2-2-2-2-2-2-2--5-5-5-5-5-5-5-5-5-5-5-5-5-5-5-5--| 
D|--0-0-0-0-0-0-0-0--2-2-2-2-2-2-2-2--5-5-5-5-5-5-5-5-5-5-5-5-5-5-5-5--| 
 1   Cursed with        awful          timing (cause you'll always be 
 2   You can           always          find me 
  
e|---------------------------------------------------------------------| 
B|---------------------------------------------------------------------| 
G|---------------------------------------------------------------------| 
D|--9-9-9-9-9-9-9-9--0-0-0-0-0-0-0-0--5-5-5-5-5-5-5-5-5-5-5-5-5-5-5-5--| 
A|--9-9-9-9-9-9-9-9--0-0-0-0-0-0-0-0--5-5-5-5-5-5-5-5-5-5-5-5-5-5-5-5--| 
D|--9-9-9-9-9-9-9-9--0-0-0-0-0-0-0-0--5-5-5-5-5-5-5-5-5-5-5-5-5-5-5-5--| 
 1   So if I          don't pick up the phone 
 2              At   home in bed     alone 

  Guitar Two (x4) - 2:02 
e|---------------------------------| 
B|---------------------------------| 
G|--14-14--9-9-9--11-11-11--7-7-7--| 
D|---x--x--x-x-x---x--x--x--x-x-x--| 
A|--12-12--7-7-7---9--9--9--5-5-5--| 
D|---------------------------------| 

OUTRO (2:13) 

  Guitar One (x1) 
e|-----------------------------------------------------------------------------------| 
B|-----------------------------------------------------------------------------------| 
G|--12-12---12-11-11---11-12-12---12-11-11---11-12-12---12-11-11---11-12-12---12-11--| 
D|---x--x----x--x--x----x--x--x----x--x--x----x--x--x----x--x--x----x--x--x----x--x--| 
A|--10-10---10--9--9----9-10-10---10--9--9----9-10-10---10--9--9----9-10-10---10--9--| 
D|-----------------------------------------------------------------------------------| 

  Guitar Two (x1) 
e|-----------------------------------------------------------------------------------| 
B|-----------------------------------------------------------------------------------| 
G|-----------------------------------------------------------------------------------| 
D|-----------------------------------------------------------------------------------| 
A|---0--0----0--0--0----0--0--0----0--0--0----0--0--0----0--0--0----0--0--0----0--0--| 
D|---0--0----0--0--0----0--0--0----0--0--0----0--0--0----0--0--0----0--0--0----0--0--| 
     P.M----------------------------------------------------------------------------| 
 1                                                                 Will you please stay? 

Compartilhe esta música: novo

QR Code
Copiar