Honeybear

Yeah Yeah Yeahs

INTRO ('Turn yourself around, your weren't invited') 
 
e|-----------------------------------| 
B|--10-8-10-8-10---8-10-12-13-12-----| 
G|-----------------------------------| 
D|-----------------------------------| 
A|-----------------------------------| 
E|-----------------------------------| x2 
 
e|-----------------------------------| 
B|--13-13-13--13-15--12-12-12--------| 
G|-----------------------------------| 
D|-----------------------------------| 
A|-----------------------------------| 
E|-----------------------------------| x2 
 
 
 
 
 
REFRAO ('Runaway, runaway you want it...') 
e|--------------------------------------------------------------------------| 
B|--------------------------------------------------------------------------| 
G|--------------------------------------------------------------------------| 
D|-7-7-----7-7---10-10-x-x---5-5-5-------------------------------------------| 
A|-7-7-----7-7---10-10-x-x---5-5-5-------------------------------------------| 
E|-5-5--0--5-5---8--8--x-x---3-3-3------------------------------------------| x4  
 
 
 
 
VERSE ('What, what did you do to your back hips?'...) 
e|------------------------------------------------------------------------| 
B|------------------------------------------------------------------------| 
G|-------------9-9------------5-5--7--------------------------------------| 
D|--7----7-----9-9-----5-5-5--5-5--7--------------------------------------| 
A|--7----7-----7-7-----5-5-5--3-3--5--------------------------------------| 
E|--5----5-------------3-3-3----------------------------------------------| x2 
 
 
termina o verso com: 
e|--------------------------------------------------------------------------| 
B|--------------------------------------------------------------------------| 
G|--------------------------------------------------------------------------| 
D|--7----7----7-------------------------------------------------------------| 
A|--7----7----7-------------------------------------------------------------| 
E|--5----5----5-------------------------------------------------------------| 
 
 
 
 
REPETE Refrão 
 
 
 
VAI PRA ESSE RIFF 
e|----------------------------------------------------------------------------| 
B|----------------------------------------------------------------------------| 
G|----------------------------------------------------------------------------| 
D|--7-7----7-7-----10--10-----10-10-----12-12-----12-----------15-15---15-----| 
A|--7-7----7-7-----10--10-----10-10-----12-12-----12-----------15-15---15-----| 
E|--5-5--0-5-5-0---8---8---0--8--8--0---10-10--0--10--8-10-12--13-13-0-13-----| 
 
 
(se quiser acompanha com esse solinho que na verdade é feito por um sintetizador, mas que cai bem se você fizer com uma guitarra acompanhando a base daí de cima) 
e|-------------------------------------------------------------| 
B|--10--8--10--8-----------------------------------------------| 
G|----------------9---7-9------------------9--10--9-10-12------| 
D|-------------------------10--12--10--12----------------------|2x 
A|-------------------------------------------------------------| 
E|-------------------------------------------------------------| 
 
 
 
 
INTERLÚDIO ('Done, all alone, I've got a call from a bear, gonna take all this honey, honey') 
 
(O nick faz como se fosse baixo) 
 
e|------------------------------------------------------| 
B|------------------------------------------------------| 
G|------------------------------------------------------| 
D|------------------------------------------------------| 
A|------------------------------------------------------| 
E|--5-3-5----8-7-8-----10---8-10-12-13---12-13-12-------| 
 
 
REPETE Refrão 
 
 
~pra ti, vadia {A}. 

Compartilhe esta música: novo

QR Code
Copiar