RPG in the punk's world

Wistfull

Tom: G5
RPG in the punk's world - Wistfull 
 
TOM:G5      INTRO: TAB + ( G5, F5, G5, C5 ) 2X 
 
             solo 1 (durante as falas) 
e-3-3-3-3-3-3-3-3-0-0-0-0-3-3-3-3> 
B-3-3-3-3-1-1-1-1-1-1-1-1-1-1-1-1> 
G-------------------------------- 
 
                 solo 2 
e-------------------------------------------------- 
B-------------------------------------------------- 
G--------------12--10----12--10-------------------- 
D------12--10---------------------12--10----------- 
A---10------------------------------------12>------ 
E-------------------------------------------------- 
 
solo 1  
G5    F5     G5         C5 
mint liquer...   i like of to drink 
G5    F5     G5          C5 
cigarrete...    i never smoke it's thing 
G5       F5    G5            C5 
a joint smart...   it's must to be cool 
G5     
but to hear rock'n'roll is always best guy! 
 
solo 2 (2X) 
 
G5     F5     G5          C5 
every friends...   you've always one 
G5      F5     G5         C5 
and colleague...   you've always ten 
G5    F5     G5               C5 
girlfriend...    i don't know what it's this 
G5 
but to hear rock'n'roll is always best guy! 
 
solo 2 (2X) 
 
G5    F5      G5      C5      G5    F5      G5      C5 
   i know, i know, i know, i know, 
G5    F5      G5      C5      G5    F5      G5      C5 
   i know, i know, i know, i know, 
G5      F5      G5        C5      G5    F5    G5    C5 
   all this is true, all this is true 
G5      F5      G5        C5      G5    F5    G5    C5  
   all this is true, all this is true 
 
( G5, F5, G5, C5 ) 4X + solo 2 e 1 
 

Compartilhe esta música: novo

QR Code
Copiar