Cold Slope

Wilco

Tom: G
riff 1 
d|-------------------------------------------| 
B|-------------------------------------------| 
G|-------------------------------------------| 
D|-------------------------------------------| 
G|--4-x-x-4-x-x-4-x-x-4-x-x-4-x-x-4-x-x-7\5--| 
D|--5-x-x-5-x-x-5-x-x-5-x-x-5-x-x-5-x-x-5\3--| 

intro   riff 1 

riff 1 
So so and you don't really care, stand alone and you're there all day 
riff 1 
Some would say you're never really there although you still take up space 
riff 1 
I know I know and you know that I know it's a power play 

riff 2 
d|--9-9-9-9-9-9-12-9-7-7-5-5-7-7-12-9-0-0-0-0-0-0-0-0--| 
B|--0-0-0-0-0-0-0--0-0-0-0-0-0-0-0--0-0-0-0-0-0-0-0-0--| 
G|--0-0-0-0-0-0-0--0-0-0-0-0-0-0-0--0-0-0-0-0-0-0-0-0--| 
D|--0-0-0-0-0-0-0--0-0-0-0-0-0-0-0--0-2-2-2-2-2-2-2-2--| 
G|--7-7-7-7-7-7------5-5-5-5-5-5------2-2-2-2-2-2-2-2--| 
D|--5-5-5-5-5-5-----------------------2-2-2-2-2-2-2-2--| 

riff 2                                            riff 1 
I won't recognize you, I won't recognize you any more 

riff 1 
So so and you don't really care, stand alone and you're there all day 
riff 1 
Some would say you're never really there although you still take up space 
riff 1 
I know I know and you know that I know it's a power play 

riff 4 
d|-------------------------------------------| 
B|-------------------------------------------| 
G|-------------------------------------------| 
D|-------------------------------------------| 
G|--7-x-x-7-x-x-7-x-x-7-x-x-7-x-x-7-x-x-7\5--| 
D|--5-x-x-5-x-x-5-x-x-5-x-x-5-x-x-5-x-x-5\3--| 

riff 5 
d|---------------------------------------------------------| 
B|---------------------------------------------------------| 
G|---------------------------------------------------------| 
D|--------------------------------------5-------8----------| 
G|--7-x-x-7-x-x-7-x-x-7-x-x-7-x-x-7-x-x-7p5-7p5-10p8-10p8--| 
D|--5-x-x-5-x-x-5-x-x-5-x-x-5-x-x-5-x-x-5---5---8----8-----| 

d|---------------------------------------------------------------| 
B|---------------------------------------------------------------| 
G|---------------------------------------------------------------| 
D|--------------------------5---5---5---5---8----8----8----8-----| 
G|--7-x-x-7-x-x-7-x-x-7-x-x-7p5-7p5-7p5-7p5-10p8-10p8-10p8-10p8--| 
D|--5-x-x-5-x-x-5-x-x-5-x-x-5---5---5---5---8----8----8----8-----| 

riff 4 
And I won't atone take some wild bile wicked 
riff 5 
Entrees over chant lace fade 
riff 6 
I'm on a cold slope raking down where is our receiver 

riff 7 
d|-----------| 
B|-----------| 
G|-----------| 
D|-----------| 
G|--5-5-3-7--| 
D|--3-3-3-5--| 

riff 7             x2 
       Look on the phone 
riff 7                             riff 7 
You can say what you want or I'll say what you want 
riff 6 
Why turn the tape, undertake a weak wall 
riff 7 
Summon the stone 
riff 6 
I advocate aiming for the weak wall 
riff 7 
Summon the stone 
riff 7                                    riff 7 
You can say what you want but you don't know what you want 
riff 7 
I'll say what you want 

guitar solo 
(again more noodling from Jeff but its played over riff 1 one time) 

riff 1         riff 1 
Now I will say all I will say 

riff 2                                            riff 1 
I won't recognize you, I won't recognize you any more 

riff 1 


************************************ 

| /   slide up 
| \   slide down 
| h   hammer-on 
| p   pull-off 
| ~   vibrato 
| +   harmonic 
| x   Mute note 
| b   Bend 
| pb  Pre-bend 
| br  Bend release 
| pbr Pre-bend release 
| brb Bend release bend 

************************************ 

Compartilhe esta música: novo

QR Code
Copiar