Cherry Red

Waterparks

Tom: D
Tuning: Drop D (DADGBe) 

Note: some parts are electronic, transcribed to guitar. 

Here's my cover on YouTube!: https://youtu.be/-WxiCo-EYwE 

Note: many parts are synth transcribed to guitar 

Guitar 1 - Awsten Knight 
Guitar 2 - Geoff Wigington 

Intro 

Guitar 1, 4x 
e|-----------------------------------|------------------------------2x-|-----------------------------------| 
B|-----------------------------------|-------------5-------------------|-----------------------------------| 
G|-----4h5------7p5-----4h5------7p5-|-----4h5-------7-----4h5-----7p5-|-----4h5------7p5-----4h5------7p5-| 
D|---5--------5-------5--------5-----|---5-------5-------5-------5-----|---5--------5-------5--------5-----| 
A|-7--------7-------7--------7-------|-7-------7-------7-------7-------|-7--------7-------7--------7-------| 
D|-----------------------------------|---------------------------------|-----------------------------------| 

Guitar 2 (00:03) 
e|-12~--------------------------------------------------12~--------------------------------------------------| 
B|-15b17~slowbend~--13~---12~/15~--------13~---12~/15~--15b17~slowbend~-13~---12~/15~---------13~---12~/15~--| 
G|---------------------------------555~------------------------------------------------555~------------------| 
D|------------------10~---9~-/12~--------10~--9~-/12~-------------------10~---9~-/12~---------10~---9~-/12~--| 
A|---------------------------------333~------------------------------------------------333~------------------| 
D|-----------------------------------------------------------------------------------------------------------|  
                    ^00:07         ^00:10                 ^00:18          ^00:26 
e|-12-------------------------------| 
B|-15b17~slowbend----13~---12~/15~--| 
G|----------------------------------| 
D|-------------------10~---9~-/12~--| 
A|----------------------------------| 
D|-------------------------------2x-| 

Full Band (00:47) 

Guitar 1 
e|------------------------2x-|------------------------------4x-| 
B|---------------------------|-------------5-------------------| 
G|---------------------------|-----4h5-------7-----4h5-----7p5-| 
D|-2-2-2-3------7-7-7-5------|---5-------5-------5-------5-----| 
A|-2-2-2-3--x12-7-7-7-5--x12-|-7-------7-------7-------7-------| 
D|-2-2-2-3------7-7-7-5------|---------------------------------| 

Guitar 2                       
e|---------------------------|------------------------12-----10-------------------------------12-----10------| 
B|---------------------------|-13--13--13-13-----13-13----12-----------12---10-13-------13-13-----12---------| 
G|-9-9-9-5------9-9-9-7------|------------------------------------12-12-----------------------------------7~-| 
D|----------x12----------x12-|----------------------------------------------------------------------------5~-| 
A|-7-7-7-3------7-7-7-5------|-------------------------------------------------------------------------------| 
D|---------------------------|-------------------------------------------------------------------------------| 
_____________________________________________________________________________________________________________ 
* - palm mute 
/ or \ - slide 
h - hammer on 
p - pull off 
~ - let note ring 
x - mute note 

Compartilhe esta música: novo

QR Code
Copiar