Wat Het Van Ons Geword

Van Coke Kartel

SONG NAME  Wat Het Van Ons Geword	 
 Band Name Van Coke Kartel 
Tuning:Standard 

intro 
e|---------------------------------------------------------------| 
B|---------------------------------------------------------------| 
G|---------------------------------------------------------------| 
D|---------------------------------------------------------------|   
A|---0--2-----0--2-----0--2-----0-2----0--2-----0--2-------------| 
E|-2--------2---------2-------2------2-------2-------------------| 
Pre Chorus 
e|---------------------------------------------------------------| 
B|---------------------------------------------------------------| 
G|---------------------------------------------------------------| 
D|--7-7-7-7-7-7-7-12-7/6-----------------------------------------| 
A|--7-7-7-7-7-7-7-12-7/6-----------------------------------------| 
E|--5-5-5-5-5-5-5-10-5/4-----------------------------------------| 
Chorus 
e|---------------------------------------------------------------| 
B|---------------------------------------------------------------| 
G|---------------------------------------------------------------| 
D|--7-5-7--12-12-12--9-9-9--7/6----------------------------------| x4 
A|--7-7-7--12-12-12--9-9-9—-7/6----------------------------------| 
E|--5-5-5--10-10-10--7-7-7— 5/4----------------------------------| 

verse 1  
luister na song vir timing 

e|---------------------------------------------------------------| 
B|---------------------------------------------------------------| 
G|---------------------------------------------------------------| 
D|-7-7-7-7-9-9-9-9-12-12-12-12-9-9-9-9-7-7-7-7-------------------| 
A|-7-7-7-7-9-9-9-9-12-12-12-12-9-9-9-9-7-7-7-7-------------------| 
E|-5-5-5-5-7-7-7-7-10-10-10-10-7-7-7-7-5-5-5-5-------------------| 

Pre Chorus 
e|---------------------------------------------------------------| 
B|---------------------------------------------------------------| 
G|---------------------------------------------------------------| 
D|--7-7-7-7-7-7-7-12-7/6-----------------------------------------| 
A|--7-7-7-7-7-7-7-12-7/6-----------------------------------------| 
E|--5-5-5-5-5-5-5-10-5/4-----------------------------------------| 

Chorus 
e|---------------------------------------------------------------| 
B|---------------------------------------------------------------| 
G|---------------------------------------------------------------| 
D|--7-5-7--12-12-12--9-9-9--7/6----------------------------------| x4 
A|--7-7-7--12-12-12--9-9-9—-7/6----------------------------------| 
E|--5-5-5--10-10-10--7-7-7— 5/4----------------------------------| 



Post Chorus deel:2 
Luister na song vir timing 
e|---------------------------------------------------------------| 
B|---------------------------------------------------------------| 
G|---------------------------------------------------------------| 
D|-9-9-9-9-9-9-9-9-9-9-12-12-12-12-12-12-12-12-12-12-7-7-7-7-7-5-/           
A|-9-9-9-9-9-9-9-9-9-9-12-12-12-12-12-12-12-12-12-12-7-7-7-7-7-5-| 
E|-7-7-7-7-7-7-7-7-7-7-10-10-10-10-10-10-10-10-10-10-5-5-5-5-5-7-| 

e|---------------------------------------------------------------| 
B|---------------------------------------------------------------| 
G|---------------------------------------------------------------| 
D|5-5-5-5-3-3-3-3-3-3-3-3-5-5-5-5-3-3-3-3------------------------| 
A|5-5-5-5-3-3-3-3-3-3-3-3-5-5-5-5-3-3-3-3------------------------| 
E|3-3-3-3-1-1-1-1-5-5-5-5-3-3-3-3-1-1-1-1------------------------| 


e|---------------------------------------------------------------| 
B|---------------------------------------------------------------| 
G|---------------------------------------------------------------| 
D|---------------------------------------------------------------|   
A|---0--2-----0--2-----0--2-----0-2----0--2-----0--2-------------| 
E|-2--------2---------2-------2------2-------2-------------------| 



Pre Chorus 
e|---------------------------------------------------------------| 
B|---------------------------------------------------------------| 
G|---------------------------------------------------------------| 
D|--7-7-7-7-7-7-7-12-7/6-----------------------------------------| 
A|--7-7-7-7-7-7-7-12-7/6-----------------------------------------| 
E|--5-5-5-5-5-5-5-10-5/4-----------------------------------------| 
Chorus 
e|---------------------------------------------------------------| 
B|---------------------------------------------------------------| 
G|---------------------------------------------------------------| 
D|--7-5-7--12-12-12--9-9-9--7/6----------------------------------| x4 
A|--7-7-7--12-12-12--9-9-9—-7/6----------------------------------| 
E|--5-5-5--10-10-10--7-7-7— 5/4----------------------------------| 


| /  slide up 
| \  slide down 
| h  hammer-on 
| p  pull-off 
| ~  vibrato 
| +  harmonic 
| x  Mute note 

Compartilhe esta música: novo

QR Code
Copiar