Wild

Ultra Q

Tom: B
*** D string needs to be tuned to the same pitch as the low E string 
           
on the 7th fret (B) in order to play guitar 1 *** 


Guitar 1: D string tuned to same pitch as low E on 7th fret 

Guitar 2: Standard 


Intro 

Guitar 1  

e|---------------------------------------------------------------------------| 
B|---------------------------------------------------------------------------| 
G|---------------------------------------------------------------------------| 
B|-------------0------0--------0-----0-------0-----0--------0-----0----------|  X2 
A|---------------------------------------------------------------------------| 
E|----------7-----7--------4------4------11-----11-------9-----9-------------| 


verse 1 

e|---------------------------------------------------------------------------| 
B|---------------------------------------------------------------------------| 
G|---------------------------------------------------------------------------| 
B|-------------0------0--------0-----0-------0-----0--------0-----0----------|  X10   
A|---------------------------------------------------------------------------| 
E|----------7-----7--------4------4------11-----11-------9-----9-------------| 
          
           Take me away from my own self fright in terms of youth 
        Through foggy rooms, time to pretend that our lives are fun 
                                 We're not fun 
                                 Miss your fun 


play this 1x after the line 'miss your fun' 

e|---------------------------------------------------------------------------| 
B|---------------------------------------------------------------------------| 
G|---------------------------------------------------------------------------| 
D|---------------------------------------------------------------------------| 
A|---------------------------------------------------------------------------| 
E|-----------7-----7--------4-----4--------11----11-------9-----9------------| 


Pre-Chorus 

Guitar 2 

e|---------------------------------------------------------------------------| 
B|----4---4---4---4------5---5---5---5-----7---7---7---7-----5---5---5---5---| 
G|--4---4---4---4------6---6---6---6-----8---8---8---8-----6---6---6---6-----| 
D|---------------------------------------------------------------------------| 
A|---------------------------------------------------------------------------| 
E|---------------------------------------------------------------------------| 
      
         Crawling out of oceans like a creature from your black lagoon 

e|---------------------------------------------------------------------------| 
B|----4---4---4---4------5---5---5---5-----7---7---7---7-----5---5---5---5---| 
G|--4---4---4---4------6---6---6---6-----8---8---8---8-----6---6---6---6-----| 
D|---------------------------------------------------------------------------| 
A|---------------------------------------------------------------------------| 
E|---------------------------------------------------------------------------| 
            
             The creature says he made it to the city by the bay 


Chorus 1 

Guitar 1 

e|---------------------------------------------------------------------------| 
B|---------------------------------------------------------------------------| 
G|---------------------------------------------------------------------------| 
B|-------------0------0--------0-----0-------0-----0--------0-----0----------|  X9   
A|---------------------------------------------------------------------------| 
E|----------7-----7--------4------4------11-----11-------9-----9-------------| 
                              
                              I'm changing for you 
Guitar 2 

e|---------------------------------------------------------------------------| 
B|---12--12--12--11-----12--12--12--11----12--12--12--11----12--12--12--11---| 
G|---------------------------------------------------------------------------| 
D|---------------------------------------------------------------------------| 
A|---------------------------------------------------------------------------| 
E|---------------------------------------------------------------------------| 
                  
God must be high  /  Daydreams are wild  / God must be high / Daydreams are wild 

e|---------------------------------------------------------------------------| 
B|---12--12--12--11-----12--12--12--11----12--12--12--11----12--12--12--11---| 
G|---------------------------------------------------------------------------| 
D|---------------------------------------------------------------------------| 
A|---------------------------------------------------------------------------| 
E|---------------------------------------------------------------------------| 
                  
God must be/the more I think of him/the more I look like him/the more I think of him                  

e|---------------------------------------------------------------------------| 
B|----------------12--12--12--12---------------------------------------------| 
G|---------------------------------------------------------------------------| 
D|---------------------------------------------------------------------------| 
A|---------------------------------------------------------------------------| 
E|---------------------------------------------------------------------------| 

     The more... 

Bridge 

(Same as Pre-Chorus) 

Guitar 2 

e|---------------------------------------------------------------------------| 
B|----4---4---4---4------5---5---5---5-----7---7---7---7-----5---5---5---5---| 
G|--4---4---4---4------6---6---6---6-----8---8---8---8-----6---6---6---6-----| 
D|---------------------------------------------------------------------------| 
A|---------------------------------------------------------------------------| 
E|---------------------------------------------------------------------------| 

e|---------------------------------------------------------------------------| 
B|----4---4---4---4------5---5---5---5-----7---7---7---7-----5---5---5---5---| 
G|--4---4---4---4------6---6---6---6-----8---8---8---8-----6---6---6---6-----| 
D|---------------------------------------------------------------------------| 
A|---------------------------------------------------------------------------| 
E|---------------------------------------------------------------------------| 


Pre-Chorus 

Guitar 2 

e|---------------------------------------------------------------------------| 
B|----4---4---4---4------5---5---5---5-----7---7---7---7-----5---5---5---5---| 
G|--4---4---4---4------6---6---6---6-----8---8---8---8-----6---6---6---6-----| 
D|---------------------------------------------------------------------------| 
A|---------------------------------------------------------------------------| 
E|---------------------------------------------------------------------------| 
         
         Crawling out of oceans like a creature from your black lagoon 

e|---------------------------------------------------------------------------| 
B|----4---4---4---4------5---5---5---5-----7---7---7---7-----5---5---5---5---| 
G|--4---4---4---4------6---6---6---6-----8---8---8---8-----6---6---6---6-----| 
D|---------------------------------------------------------------------------| 
A|---------------------------------------------------------------------------| 
E|---------------------------------------------------------------------------| 
             
             The creature says he made it to the city by the bay 

Chorus 2 

Guitar 1 

e|---------------------------------------------------------------------------| 
B|---------------------------------------------------------------------------| 
G|---------------------------------------------------------------------------| 
B|-------------0------0--------0-----0-------0-----0--------0-----0----------|  X4   
A|---------------------------------------------------------------------------| 
E|----------7-----7--------4------4------11-----11-------9-----9-------------| 

                               I'm changing for you 

Guitar 2  

e|---------------------------------------------------------------------------| 
B|------------16----16----16----16----------------17----17----17----17-------| 
G|---------16----16----16----16----------------15----15----15----15----------| 
D|---------------------------------------------------------------------------|  X4 
A|---------------------------------------------------------------------------| 
E|---------------------------------------------------------------------------| 

I'm changing for you // God must be high // daydreams are wild // God must be high 




Outro 

Guitar 2 (upstrokes) 

e|---------2-------2-------2-------2-------2-------2-------2-------2----------| 
B|---------2-------2-------2-------2-------2-------2-------2-------2----------| 
G|---------2-------2-------2-------2-------2-------2-------2-------2----------| 
D|---------4-------4-------4-------4-------4-------4-------4-------4----------| 
A|---------4-------4-------4-------4-------4-------4-------4-------4----------| 
E|---------2-------2-------2-------2-------2-------2-------2-------2----------| 
                   
                    God must be high // daydreams are wild 

Compartilhe esta música: novo

QR Code
Copiar