The saints are coming

U2 and Greenday

Tom: Em
Intro (w/ heavy delay) (piano plays Em, Em/D, Bm under) 
The Edge 
e|-12:--10:--| 
B|-----------| 
G|-----------| 
D|-----------| 
A|-----------| 
E|-----------| 
 
Pre-Verse 
The Edge 
e|-------------------------------------------------------------------------------------------------| 
B|-------------------------------------------------------------------------------------------------| 
G|-12----12----12----12----11----11----11----11----11----11----11----11----11----11----11----11----| 
D|----14----14----14----14----14----14----14----14----12----12----12----12----11----11----11----11-| 
A|-------------------------------------------------------------------------------------------------| 
E|-------------------------------------------------------------------------------------------------| 
Billie 
e|-7-----7-----7-----7-----7-----7-----7-----7-----7-----7-----7-----7-----6-----6-----6-----6-----| 
B|-8-----8-----8-----8-----8-----8-----8-----8-----7-----7-----7-----7-----7-----7-----7-----7-----| 
G|-------------------------------------------------------------------------------------------------| 
D|-------------------------------------------------------------------------------------------------| 
A|-------------------------------------------------------------------------------------------------| 
E|-------------------------------------------------------------------------------------------------| 
 
Verse (w/ filters/wah) 
The Edge 
e|-----10:---7:--| 
B|-8:---8:---7:--| 
G|-9:---7:---7:--| 
D|-9:---9:---9:--| 
A|-7:------------| 
E|---------------| 
 
Pre-Chorus (Boom! Cha! Hey!) 
The Edge + Billie 
e|-----------------------------------------------| 
B|-----------------------------------------------| 
G|-11-12-14-11-12-14-11-12-14-11-12-14-11-12-14\-| 
D|-----------------------------------------------| 
A|-----------------------------------------------| 
E|-----------------------------------------------| 
 
Chorus 
The Edge 
e|--0--0--0-0-0-0-3--3--3-3-3-3-0--0--0-0-0-0-3--3--3-3-3-3-| 
B|--0--0--0-0-0-0-3--3--3-3-3-3-0--0--0-0-0-0-3--3--3-3-3-3-| 
G|--0--0--0-0-0-0-4--4--4-4-4-4-0--0--0-0-0-0-4--4--4-4-4-4-| 
D|--2--2--2-2-2-2-5--5--5-5-5-5-2--2--2-2-2-2-5--5--5-5-5-5-| 
A|--2--2--2-2-2-2-5--3--5-5-5-5-2--2--2-2-2-2-5--5--5-5-5-5-| 
E|--0--0--0-0-0-0-3--3--3-3-3-3-0--0--0-0-0-0-3--3--3-3-3-3-| 
Billie 
e|----------------------------------------------------------| 
B|---------------15:-------------------------15-------------| 
G|--12:----------------12--11--12:-----------------12--11---| 
D|----------------------------------------------------------| 
A|----------------------------------------------------------| 
E|----------------------------------------------------------| 
 
The Edge 
-------------------------------------------------| 
-------------------------------------------------| 
-12-12-12-12-12-12-12-12-11-11-11-11-11-11-11-11-| 
-------------------------------------------------| 
-------------------------------------------------| 
-------------------------------------------------| 
Billie 
-------------------------------------------------| 
-------------15----------------------15----------| 
-12-12-12-12-------12----11-11-11-11-------11----| 
-------------------------------------------------| 
-------------------------------------------------| 
-------------------------------------------------| 
 
The Edge 
--0--0--0-0-0-0-3--3--3-3-3-3-0--0--0-0-0-0-3--3--3-3-3-3-| 
--0--0--0-0-0-0-3--3--3-3-3-3-0--0--0-0-0-0-3--3--3-3-3-3-| 
--0--0--0-0-0-0-4--4--4-4-4-4-0--0--0-0-0-0-4--4--4-4-4-4-| 
--2--2--2-2-2-2-5--5--5-5-5-5-2--2--2-2-2-2-5--5--5-5-5-5-| 
--2--2--2-2-2-2-5--3--5-5-5-5-2--2--2-2-2-2-5--5--5-5-5-5-| 
--0--0--0-0-0-0-3--3--3-3-3-3-0--0--0-0-0-0-3--3--3-3-3-3-| 
Billie 
----------------------------------------------------------| 
---------------15:-------------------------15-------------| 
--12:----------------12--11--12:-----------------12--11---| 
----------------------------------------------------------| 
----------------------------------------------------------| 
----------------------------------------------------------| 
 
The Edge + Billie 
-----------------------------------------------------------------------------| 
-----------------------------------------------------------------------------| 
-11-11-12-12-14-14-11-11-12-12-14-14-11-11-12-12-11-11-12-12-14-14-11-11-12\-| 
-----------------------------------------------------------------------------| 
-----------------------------------------------------------------------------| 
-----------------------------------------------------------------------------| 
 
Repeat Pre-Verse w/ pm 
 
Solo 
The Edge 
e|-----------------------------------------------------------------| 
B|-------------------------------------------------17------\-------| 
G|---------------------------------14b(16):~-------19b(21)~\-------| 
D|-12b(14):--------------------------------------------------------| 
A|----------------12/14:-------------------------------------------| 
E|-----------------------------------------------------------------| 
Billie 
e|-7-7-7-7-7-7-7-7-7-7-7-7-7-7-7-7-7-7-7-7-7-7-7-7-6-6-6-6-6-6-6-6-| 
B|-8-8-8-8-8-8-8-8-8-8-8-8-8-8-8-8-7-7-7-7-7-7-7-7-7-7-7-7-7-7-7-7-| 
G|-----------------------------------------------------------------| 
D|-----------------------------------------------------------------| 
A|-----------------------------------------------------------------| 
E|-----------------------------------------------------------------| 
 
Repeat Verse 
 
Repeat Chorus 
 
Repeat last Chorus riff 
 
end on 
The Edge + Billie 
e|-------| 
B|-12:~\-| 
G|-------| 
D|-------| 
A|-------| 
E|-------| 
 
| /  slide up 
| \  slide down 
| h  hammer-on 
| p  pull-off 
| ~  vibrato 
| +  harmonic 
| x  Mute note 
 

Compartilhe esta música: novo

QR Code
Copiar