Lc Clip

Trond Holter

Tom: B
e|-------------------------|----------------------|----------------------| 
B|-------------------------|----------------------|-12-13-12-------------| 
G|-------------11-11-------|-12-12-11-11-14-14-12-|----------14-12-11----| 
D|-14-14-13-13-------14-14-|----------------------|-------------------14-| 
A|-------------------------|----------------------|----------------------| 
E|-------------------------|----------------------|----------------------| 

e|----------------------| 
B|-12-12----------------| 
G|-------14-12-11-------| 
D|----------------14-13-| 
A|----------------------| 
E|----------------------| 

e|-------------------------|----------------------|----------------------| 
B|-------------------------|----------------------|-12-13-12-------------| 
G|-------------11-11-------|-12-12-11-11-14-14-12-|----------14-12-11----| 
D|-14-14-13-13-------14-14-|----------------------|-------------------14-| 
A|-------------------------|----------------------|----------------------| 
E|-------------------------|----------------------|----------------------| 

e|----------------| 
B|----------------| 
G|-------11-12-11-| 
D|-13-14----------| 
A|----------------| 
E|----------------| 

e|-------------------------|----------------------|----------------------| 
B|-------------------------|----------------------|-12-13-12-------------| 
G|-------------11-11-------|-12-12-11-11-14-14-12-|----------14-12-11----| 
D|-14-14-13-13-------14-14-|----------------------|-------------------14-| 
A|-------------------------|----------------------|----------------------| 
E|-------------------------|----------------------|----------------------| 

e|-17h19-20-19-17------------------| 
B|---------------20-19-17----------| 
G|------------------------19-17-16-| 
D|---------------------------------| 
A|---------------------------------| 
E|---------------------------------| 

e|-------------------------|----------------------|----------------------| 
B|-------------------------|----------------------|-12-13-12-------------| 
G|-------------11-11-------|-12-12-11-11-14-14-12-|----------14-12-11----| 
D|-14-14-13-13-------14-14-|----------------------|-------------------14-| 
A|-------------------------|----------------------|----------------------| 
E|-------------------------|----------------------|----------------------| 

e|----------------| 
B|----------------| 
G|-------11-12-11-| 
D|-13-14----------| 
A|----------------| 
E|----------------| 

e|-15-17-19-17-15----------------------------------15-17-19-| 
B|----------------19-17-15----------------15-17-19----------| 
G|-------------------------17-16-14-16-18-------------------| 
D|----------------------------------------------------------| 
A|----------------------------------------------------------| 
E|----------------------------------------------------------| 

e|-17-19-20-19-17----------------------------------17-19-20-| 
B|----------------20-19-17----------------17-19-20----------| 
G|-------------------------19-17-16-17-19-------------------| 
D|----------------------------------------------------------| 
A|----------------------------------------------------------| 
E|----------------------------------------------------------| 

e|-22-24-22-20-19-22-20-19-17-20-19-15-19-17-15-14-17-15-14-| 
B|----------------------------------------------------------| 
G|----------------------------------------------------------| 
D|----------------------------------------------------------| 
A|----------------------------------------------------------| 
E|----------------------------------------------------------| 

e|-12-15-14-12-10-14-12-10-8-12-10-8-----0-----0-----0---| 
B|-----------------------------------2/8---2/8---2/8-----| 
G|-----------------------------------------------------2b| 
D|-------------------------------------------------------| 
A|-------------------------------------------------------| 
E|-------------------------------------------------------| 

e|-pt1915-14-12-14-15-14-pt2015-14-12-14-15-14-| 
B|-------------------------------------------------| 
G|-------------------------------------------------| 
D|-------------------------------------------------| 
A|-------------------------------------------------| 
E|-------------------------------------------------| 

e|-pt2017-15-14-15-17-15-pt2017-18b-| 
B|--------------------------------------| 
G|--------------------------------------| 
D|--------------------------------------| 
A|--------------------------------------| 
E|--------------------------------------| 

e|-12b-12b-12b-12b-12b-12b-----12b-12b-12b-12b-12b-12b-| 
B|-15b-15b-15b-15b-15b-15b-15b-15b-15b-15b-15b-15b-15b-| 
G|-------------------------14b-14b-14b-14b-14b-14b-14b-| 
D|-----------------------------------------------------| 
A|-----------------------------------------------------| 
E|-----------------------------------------------------| 

e|-------------------------------12----------------------------| 
B|-15b-----12-15----12-----12-14----12-15----------------------| 
G|-----14b-------14----15b----------------15-14-12-------14-12-| 
D|-------------------------------------------------14-12-------| 
A|-------------------------------------------------------------| 
E|-------------------------------------------------------------| 

The riff before the final main riff I did not bothered to do...  
Will do that part upon enough requests only! 

e|-------------------------|----------------------|----------------------| 
B|-------------------------|----------------------|-12-13-12-------------| 
G|-------------11-11-------|-12-12-11-11-14-14-12-|----------14-12-11----| 
D|-14-14-13-13-------14-14-|----------------------|-------------------14-| 
A|-------------------------|----------------------|----------------------| 
E|-------------------------|----------------------|----------------------| 

e|----------------------| 
B|-12-12----------------| 
G|-------14-12-11-------| 
D|----------------14-13-| 
A|----------------------| 
E|----------------------| 

e|-------------------------|----------------------|----------------------| 
B|-------------------------|----------------------|-12-13-12-------------| 
G|-------------11-11-------|-12-12-11-11-14-14-12-|----------14-12-11----| 
D|-14-14-13-13-------14-14-|----------------------|-------------------14-| 
A|-------------------------|----------------------|----------------------| 
E|-------------------------|----------------------|----------------------| 

e|----------------| 
B|----------------| 
G|-------11-12-11-| 
D|-13-14----------| 
A|----------------| 
E|----------------| 

e|-------------------------|----------------------|----------------------| 
B|-------------------------|----------------------|-12-13-12-------------| 
G|-------------11-11-------|-12-12-11-11-14-14-12-|----------14-12-11----| 
D|-14-14-13-13-------14-14-|----------------------|-------------------14-| 
A|-------------------------|----------------------|----------------------| 
E|-------------------------|----------------------|----------------------| 

e|-17-19-20-19-17------------------| 
B|---------------20-19-17----------| 
G|------------------------19-17-16-| 
D|---------------------------------| 
A|---------------------------------| 
E|---------------------------------| 

e|-------------------------|----------------------|----------------------| 
B|-------------------------|----------------------|-12-13-12-------------| 
G|-------------11-11-------|-12-12-11-11-14-14-12-|----------14-12-11----| 
D|-14-14-13-13-------14-14-|----------------------|-------------------14-| 
A|-------------------------|----------------------|----------------------| 
E|-------------------------|----------------------|----------------------| 

e|----------------| 
B|----------------| 
G|-------11-12-11-| 
D|-13-14----------| 
A|----------------| 
E|----------------| 

e|-------------------|----------------| 
B|-------------------|----------------| 
G|-------------------|-------15-15----| 
D|-14-14-14-14-14-14-|-14-14----------| 
A|-------------------|----------------| 
E|-------------------|----------------| 

e|-------------------|----------------| 
B|-------------------|----------------| 
G|-------------------|-------15-15----| 
D|-14-14-14-14-14-14-|-14-14----------| 
A|-------------------|----------------| 
E|-------------------|----------------| 

e|-------------------|-----------------| 
B|-------------------|-----------------| 
G|-------------------|-------14b-12----| 
D|-14-14-14-14-14-14-|-14-14--------14-| 
A|-------------------|-----------------| 
E|-------------------|-----------------| 

************************************ 

| /   slide up 
| \   slide down 
| h   hammer-on 
| p   pull-off 
| ~   vibrato 
| +   harmonic 
| x   Mute note 
| b   Bend 
| pb  Pre-bend 
| br  Bend release 
| pbr Pre-bend release 
| brb Bend release bend 
| pt  Pick Tapping 
************************************ 

Compartilhe esta música: novo

QR Code
Copiar