Looking For Shangri-la

Tribes

Tom: D
Intro 
A  

                           D* 
E |------------------------2-------------------------------------------------| 
B |---10-------------------3-------------------------------------------------| 
G |---9/11/9--9-----9------2-------------------------------------------------| 
D |-----------11/9--11/9---0-------------------------------------------------| 
A |--------------------------------------------------------------------------| 
E |--------------------------------------------------------------------------| 


D* A E F#m* 

** 
E |--------------------------------------------------------------------------| 
B |--------------------------------------------------------------------------| 
G |-------2------2-----------------------------------------------------------| 
D |--2-4----2-4-----4-2------------------------------------------------------| 
A |------------------------0-------------------------------------------------| 
E |--------------------------------------------------------------------------| 


Verse 
A F#m D E 
A F#m D E 

Chorus 
D A E F#m 
D A E F#m 
D A E E 

Verse 
A F#m D E 
A F#m D E 

Chorus 
D A E F#m 
D A E F#m 
D A E F#m 
D A E F#m 

Solo and to the end 
D A E F#m 
D A E F#m 

Compartilhe esta música: novo

QR Code
Copiar