Whatever Whenever

This Town Needs Guns

Intro                                                              EGDBAd() 
                                                                     High e is open     
Tab relative to capo however the high e is not sice its not capoed 

d|-------------/17---------------------------------------------------------------| 
A|-2-0-----0-------------------4-----0------------0-------0-0--------------------| 
B|-3-0---0---7-----7h8p7p0-------0-7---0------3h5---/7-/5-3-0--------------------| 
D|-4-0-4---------------------0--------------5-------/7-/5-5-5--x-x-4-------------| 
G|----------------------------------------0--------------------x-x-0-------------| 
E|-------------------------5-----------------------------------x-x-2-------------| 

Verse 
e|--------------------------------------------------------------------------------| 
B|---------0---------0--------0----------0--------0--------0--------5---------0---| 
G|-------3--------10--------7--------3h5--------3--------0--------0---0-----0-----| 
D|-----4--------0---------9--------5----------4--------4--------7-------7-0-------| 
A|----------------------0--------0----------------------------4-------------------| 
E|---3--------7-----------------------------3--------2----------------------------| 

Chorus 
e|-------------9--------------------------------------------------------------| 
B|------0--------9-------7--------0-------------------------------------------| 
G|--------0----------------7---------0----------------------------------------| 
D|--2h4-----------------------------------------------------------------------| 
A|--2-------------------------------------------------------------------------| 
E|-----------7--------5--------5----------------------------------------------| 

Bridge 
e|---------------------0--------0----------0----------------------------------| 
B|-----0h9-------------0--------0----------0----------------------------------| 
G|---------10—2x---0h5------0h3-------0h2-------------------------------------| 
D|-----0h9---------0h5------0h5-------0---------------------------------------| 
A|---------------0--------0---------2-----------------------------------------| 
E|--7-------------------------------------------------------------------------| 

Outro 
e|----7-----------0-----------7------------0-------------------------------------| 
B|------4-----------4-----------4------------4-----------------------------------| 
G|--------3-----------0------------3-----------0---------------------------------| 
D|----------0-----------0---0---------0------------------------------------------| 
A|--0------------------------------------4---------------------------------------| 
E|--------------5----------------------------------------------------------------| 

Little Fill 
e|---------------------------------------------------------------------------| 
B|--------0-------7----------------------------------------------------------| 
G|------0-----------7--------------------------------------------------------| 
D|--2h4------0---------------------------------------------------------------| 
A|--2----------x-------------------------------------------------------------| 
E|---------------------------------------------------------------------------| 


This is not perfect any corrections and suggestions are welcomed 
I thing you get a basic idea 
This is done all 100% by ear and watching Tim live 



************************************ 

| /  Slide up 
| h  Hammer-on 
| p  Pull-off 
| x  Dead note 


************************************ 

Compartilhe esta música: novo

QR Code
Copiar