Singularity

The Unguided


Intro 

D----------------------------------------------------------------------------| 
A----------------------------------------------------------------------------| 
F----------------------------------------------------------------------------| 
C---0----000--000---000--000----0----000--000---0-333-3-3-3-555555-----------| 
G---0----000--000---000--000----0----000--000---0-333-3-3-3-555555-----------| 
C---0----000--000---000--000----0----000--000---0-333-3-3-3-555555-----------| 
         PM.  PM.   PM.  PM.         PM.  PM.   PM................ 


D-----------------------------------------------------------------------------| 
A-----------------------------------------------------------------------------| 
F-----------------------------------------------------------------------------| 
C---0----000--000---000--000----0----000--000---0-888-8-8-8-10.10.10,10.10.10-| 
G---0----000--000---000--000----0----000--000---0-888-8-8-8-10.10.10,10.10.10-| 
C---0----000--000---000--000----0----000--000---0-888-8-8-8-10.10.10,10.10.10-| 
         PM.  PM.   PM.  PM.         PM.  PM.   PM........................... 

verse 1 

D----------------------------------------------------------------------------| 
A----------------------------------------------------------------------------| 
F----------------------------------------------------------------------------| 
C---0----000--000---000--000----0----000--000---0-333-3-3-3-555555-----------| 
G---0----000--000---000--000----0----000--000---0-333-3-3-3-555555-----------| 
C---0----000--000---000--000----0----000--000---0-333-3-3-3-555555-----------| 
    PM............................................................ 

D-----------------------------------------------------------------------------| 
A-----------------------------------------------------------------------------| 
F-----------------------------------------------------------------------------| 
C---0----000--000---000--000----0----000--000---0-888-8-8-8-10.10.10.10.10.10-| 
G---0----000--000---000--000----0----000--000---0-888-8-8-8-10.10.10.10.10.10-| 
C---0----000--000---000--000----0----000--000---0-888-8-8-8-10.10.10.10.10.10-| 
    PM....................................................................... 

verse 2 

D-----------------------------------------------------------------------| 
A-----------------------------------------------------------------------| 
F---7---------------------------7---------------------------------------| 
C---x----000--000---000--000----x----000--000---0-333-3-3-3-555555------| 
G---5----000--000---000--000----5----000--000---0-333-3-3-3-555555------| 
C--------000--000---000--000---------000--000---0-333-3-3-3-555555------| 
         PM.  PM.   PM.  PM.         PM.  PM.   PM................ 


D-----------------------------------------------------------------------| 
A-----------------------------------------------------------------------| 
F---7------------------------7------------------------------------------| 
C---x--000--000---000--000---x--000--000--0-888-8-8-8-10.10.10.10.10.10-| 
G---5--000--000---000--000---5--000--000--0-888-8-8-8-10.10.10.10.10.10-| 
C------000--000---000--000------000--000--0-888-8-8-8-10.10.10.10.10.10-| 
       PM.  PM.   PM.  PM.      PM.  PM.  PM........................... 

Interlude 

D----------------------------------------------------| 
A----------------------------------------------------| 
F----------------------------------------------------| 
C--33333333-55555555-3p0-000-0-0-0--3p0-000-0-0-0-0--| 
G--33333333-55555555-3p0-000-0-0-0--3p0-000-0-0-0-0--| 
C--33333333-55555555-3p0-000-0-0-0--3p0-000-0-0-0-0--| 
                         PM.......      PM......... 

D----------------------------------------------------| 
A----------------------------------------------------| 
F----------------------------------------------------| 
C--33333333-55555555-8p0 000-0-0-0--8p0-000-0-0-0-0--| 
G--33333333-55555555-8p0-000-0-0-0--8p0-000-0-0-0-0--| 
C--33333333-55555555-8p0-000-0-0-0--8p0-000-0-0-0-0--| 
                         PM.......      PM......... 

D----------------------------------------------------| 
A----------------------------------------------------| 
F----------------------------------------------------| 
C--33333333-55555555-3p0-000-0-0-0--3p0-000-0-0-0-0--| 
G--33333333-55555555-3p0-000-0-0-0--3p0-000-0-0-0-0--| 
C--33333333-55555555-3p0-000-0-0-0--3p0-000-0-0-0-0--| 
                         PM.......      PM......... 

D----------------------------------------------------| 
A----------------------------------------------------| 
F----------------------------------------------------| 
C--33333333-55555555-77777777-8-10-10-10-10----------| 
G--33333333-55555555-77777777-8-10-10-10-10----------| 
C--33333333-55555555-77777777-8-10-10-10-10----------| 
                                PM...... 

Chorus 

D--------------------------------------------------------| 
A--------------------------------------------------------| 
F--------------------------------------33333333-55555555-| 
C--88888888-55555555-000000000000-3333-33333333-55555555-| 
G--88888888-55555555-000000000000-3333-11111111-33333333-| 
C--88888888-55555555-000000000000-3333-------------------| 

A----------10-10-10-10----------13--13--13--13------| 
F----------x--x--x--x-----------x---x---x---x-------| 
C-0-000-0--7--7--7--7--0-000-0--10--10--10--10------| 
G-0-000-0--------------0-000-0----------------------| 
C-0-000-0--------------0-000-0----------------------| 
  PM.....              PM..... 

Interlude 2 

D-----------------------------------------------------------------| 
A-----------------------------------------------------------------| 
F-----------------------------------------------------------------| 
C--888-8-8-888-8-8--8/10--10.10.10--10-10--10.10.10--10-10--10/12-| 
G--888-8-8-888-8-8--8/10--10.10.10--10-10--10.10.10--10-10--10/12-| 
C--888-8-8-888-8-8--8/10--10.10.10--10-10--10.10.10--10-10--10/12-| 
   PM.............        PM.............................. 

D-------------------------------------------------------------------| 
A-------------------------------------------------------------------| 
F-------------------------------------------------------------------| 
C-12.12.12.12.12.12-10.10-12.12.12.12-10.10.10.10-12.12.12.12.12.12-| 
G-12.12.12.12.12.12-10.10-12.12.12.12-10.10.10.10-12.12.12.12.12.12-| 
C-12.12.12.12.12.12-10.10-12.12.12.12-10.10.10.10-12.12.12.12.12.12-| 

D-------------------------------| 
A-------------------------------| 
F-------------------------------| 
C-12.12.12.12.12.12-10.10.10.10-| 
G-12.12.12.12.12.12-10.10.10.10-| 
C-12.12.12.12.12.12-10.10.10.10-| 

Solo/Rhythm 

D--------------------------------------------------------------------------| 
A--------------------------------------------------------------------------| 
F-----------7-10-----5-7-777777777777--10-10-10-10-------------------------| 
C--8--5--0--7-10--8--5-7-777777777777--10-10-10-10--8--88888888888888------| 
G--8--5--0--5-8---8--3-5-555555555555--8--8--8--8---8--88888888888888------| 
C--8--5--0--------8---------------------------------8--88888888888888------| 
                                                       PM............ 

D------------------------------------------------------| 
A------------------------------------------------------| 
F------------------------------------------------------| 
C-10.10.10.10.10.10.10.10.10.10.10.10.10.10.10.10--12--| 
G-10.10.10.10.10.10.10.10.10.10.10.10.10.10.10.10--12--| 
C-10.10.10.10.10.10.10.10.10.10.10.10.10.10.10.10--12--| 
  PM............................................. 

End Note 

D-------| 
A-------| 
F-------| 
C---8---| 
G---8---| 
C---8---| 

Singularity Riff Order: 

Intro         2x 
Verse         1x 
verse 2       1x 
Interlude     1x 
Chorus        2x 
Verse         1x 
verse 2       1x 
Interlude     1x Just the Second Part 
Chorus        2x 
Interlude 2   2x 
Solo          1x 
Chorus        2x starting from 0 
Interlude 2   2x 
End Note      1x 

Compartilhe esta música: novo

QR Code
Copiar