My Own Death

The Unguided

D|--------------------------------------------| 
A|--------------------------------------------| 
F|--------------------------------------------| 
C|-00000055333333333333335588888101010--------| 
G|-00000055333333333333335588888101010--------| 
C|-00000055333333333333335588888101010--------| 


D|--------------------------------------------| 
A|--------------------------------------------| 
F|--------------------------------------------| 
C|-00000055333333333333335500000000-----------| 
G|-00000055333333333333335500000000-----------| 
C|-00000055333333333333335500000000-----------| 



Part Two 

2 Times again. Im not sure, but I think after the first time, the second guitar plays 
the first Riff (with the special picking) in the background. 
Listen to the Song for the Rhythm! 

D|----------------------------------------------| 
A|----------------------------------------------| 
F|----------------------------------------------| 
C|----------------------------------------------| 
G|----------------------------------------------| 
C|-000-5357-8-8-878-888-1081012-12-12-121012----| 

D|--------------------------------------------| 
A|--------------------------------------------| 
F|--------------------------------------------| 
C|--------------------------------------------| 
G|--------------------------------------------| 
C|-000-5357-8-8-878-888-333-0-0-0-------------| 


Part Three 


D|--------------------------------------------| 
A|--------------------------------------------| 
F|--------------------------------------------| 
C|-88888888555555553333333300003355-----------| 
G|-88888888555555553333333300003355-----------| 
C|-88888888555555553333333300003355-----------| 

D|--------------------------------------------| 
A|--------------------------------------------| 
F|--------------------------------------------| 
C|-888888881010101010101010-5-5-7-8-----------| 
G|-888888881010101010101010-------------------| 
C|-8888888810101010101010103-3-5-5------------| 
				^not sure about this 


Solo: 
Roland uses heavy wah-wah, so this tab is only an approach. Please correct if you find 
something, especially the last ~5 Notes. 

		          bend up to 15 and tap on the 15th fret, 1. String 
                                                    v 
D|-----------13b----------15b17-15-13-15--12-13-12-13b15r~13--| 
A|-13-15-~15----~13-15-10-------------------------------------| 
F|------------------------------------------------------------| 
C|------------------------------------------------------------| 
G|------------------------------------------------------------| 
C|------------------------------------------------------------| 

D|-13-15-13-12-13-12-------| 
A|-------------------13----| 
F|-------------------------| 
C|-------------------------| 
G|-------------------------| 
C|-------------------------| 

D|---------------------(or tap the 13-| 
A|-~10------8-10-8-6-8-10b13----------| 
F|-----7-10---------------------------| 
C|------------------------------------| 
G|------------------------------------| 
C|------------------------------------| 

Probably wrong since here. My guess: 22nd fret and higher, My guitar ends at 22. Plus 
Wah-wah. If you know better, please let me know (Comment) 
D|-20b22-20-18-20--~22b24-(???)-| 
A|------------------------------| 
F|------------------------------| 
C|------------------------------| 
G|------------------------------| 
C|------------------------------| 


Part Two 

Then Part One in some kind of triplet picking pattern. 

Ending: 


D|------| 
A|------| 
F|------| 
C|-3530-| 
G|-3530-| 
C|-3530-| 
 

Compartilhe esta música: novo

QR Code
Copiar