Iceheart Fragment

The Unguided

PM=Palm Muted 
x=Mute 
\=Slide Down 


Intro Riff 


D------------------------------------------------| 
A------------------------------------------------| 
F--7-----7-----7-----7-7-----7-------------------| 
C--x-----x-----x-----x-x-----x-------------------| 
G--5-----5-----5-----5-5-----5-------------------| 
C----0-0---0-0---0-0-----0-0-----0-0-0-0-0-0-0-0-| 
     PM.   PM.   PM.     PM.     PM............. 

D------------------------------------------------| 
A------------------------------------------------| 
F-3-----3-----3-----3---------3----------5-5-5-5-| 
C-x-----x-----x-----x---------x----------x-x-x-x-| 
G-1-----1-----1-----1---------1----------3-3-3-3-| 
C---0-0---0-0---0-0---0-0-0-0---0-0-0-0----------| 
    PM.   PM.   PM.   PM.....   PM..... 


Verse 



D----------------------------------------------| 
A----------------------------------------------| 
F--------------------------------------2-------| 
C----------7-----7-7-8-5-----3-----3-5---------| 
G----------------------------------------------| 
C--5-5-5-5---5-5---------0-0---0-0-------------| 
   PM.....   PM.         PM.   PM. 


D----------------------------------------------| 
A----------------------------------------------| 
F----------------------------------------2-----| 
C----------7-----7-7-8-5-----3-----3-----------| 
G----------------------------------------------| 
C--5-5-5-5---5-5---------0-0---0-0---0-0-------| 
   PM.....   PM.         PM.   PM.   PM. 



Chorus 


D-----------------------------------------------| 
A-----------------------------------------------| 
F-----------------------------------------------| 
C--55555555555-7-7-8-8-33333333333-1-1-1-0-0----| 
G--55555555555-7-7-8-8-33333333333-1-1-1-0-0----| 
C--55555555555-7-7-8-8-33333333333-1-1-1-0-0----| 




Fill In 

D--------------------------------| 
A--------------------------------| 
F-----20-16-18----20-16-18\------| 
C--19----------19----------------| 
G--------------------------------| 
C--------------------------------| 



Interlude 


D--------------------------------------------------| 
A--------------------------------------------------| 
F----------7-----7-----77-----7---- 10-----12------| 
C----------x-----x-----xx-----x-----x------x-------| 
G----------5-----5-----55-----5-----8------10------| 
C--0-0-0-0---0-0---0-0----0-0---0-0----0-0---------| 
   PM.....   PM.   PM.    PM.   PM.    PM. 

Solo/Rhythm 



D--------------------| 
A--------------------| 
F--------------------| 
C--5--8--1--3\-------| 
G--5--8--1--3\-------| 
C--5--8--1--3\-------| 


End Note 


D-------| 
A-------| 
F-------| 
C---5---| 
G---5---| 
C---5---| 



Iceheart Fragment Riff Order 


Intro Riff      2x 
Verse           2x 
Chorus          2x 
Fill In         1x 
Verse           2x 
Chorus          4x 
Intro Riff      2x 
Interlude       7x 
Solo            1x 
Chorus          4x 
Intro Riff      1x 
Interlude       1x 
End Note        1x 

Compartilhe esta música: novo

QR Code
Copiar