I Love You Like An Alcoholic (acoustic)

The Taxpayers

Intro 

Rhythm 

e|-----------------------------------------------------------------| 
B|-----5--------5---------5---------5------------------------------| 
G|-----5--------5---------5---------5------------------------------|       
D|-----------------------------------------------------------------| 
A|---0------0------------------------------------------------------| 
E|------------4-------4-3-------3-2--------------------------------| 

e|-----------------------------------------------------------------| 
B|-----5--------5---------5---------5------------------------------| 
G|-----5--------5---------5---------5------------------------------|       
D|-----------------------------------------------------------------| 
A|---0------0------------------------------------------------------| 
E|------------4-------4-3-------3-2--------------------------------| 

e|-----------------------------------------------------------------| 
B|-----5--------5---------5---------5------------------------------| 
G|-----5--------5---------5---------5------------------------------|       
D|-----------------------------------------------------------------| 
A|---0------0------------------------------------------------------| 
E|------------4-------4-3-------3-2--------------------------------| 

                            this mute on 5th fret 
e|-1-----1-----1---0--1--3--X--------------------------------------| 
B|-1-------1-------0--1--3--X--------------------------------------| 
G|-2---------2-----1--2--4--X--------------------------------------|       
D|-3---------------2--3--5--X--------------------------------------| 
A|-3---------------2--3--5--X--------------------------------------| 
E|-1---------------0--1--3--X--------------------------------------| 

Lead/Melody 

e|-5--7-8-7-5p0--0---0---0---0-------------------------------------| 
B|-5-------------4\5-4\5-4\5-4\5-----------------------------------| 
G|-5---------------------------------------------------------------|       
D|-----------------------------------------------------------------| 
A|-----------------------------------------------------------------| 
E|-----------------------------------------------------------------| 

e|-5--7-8-7-5--5\12-10-8-7-----------------------------------------| 
B|-5---------------------------------------------------------------| 
G|-5---------------------------------------------------------------|       
D|-----------------------------------------------------------------| 
A|-----------------------------------------------------------------| 
E|-----------------------------------------------------------------| 

e|-5--7-8-7-5p0----------------------------------------------------| 
B|-5-------------------3-1-0---------------------------------------| 
G|-5-------------5p4p2---------------------------------------------| 
D|-----------------------------------------------------------------| 
A|-----------------------------------------------------------------| 
E|-----------------------------------------------------------------| 

e|-----------------------------------------------------------------| 
B|-1/5--1-3-1------------------------------------------------------| 
G|------------1----------------------------------------------------|      
D|-----------------------------------------------------------------| 
A|-----------------------------------------------------------------| 
E|-----------------------------------------------------------------| 


Verse 

Heavy humid night. Corner of Park and Main 
e|-----------------------------------------------------------------| 
B|-----5--------5---------5---------5------------------------------| 
G|-----5--------5---------5---------5------------------------------| 
D|-----------------------------------------------------------------| 
A|---0------0------------------------------------------------------| 
E|------------4-------4-3-------3-2--------------------------------| 

Cast that first glance: your smile, my veins 
e|-----------------------------------------------------------------| 
B|-----5--------5---------5---------5------------------------------| 
G|-----5--------5---------5---------5------------------------------| 
D|-----------------------------------------------------------------| 
A|---0------0------------------------------------------------------| 
E|------------4-------4-3-------3-2--------------------------------| 

at maximum capacity, blood pumping so fast 
e|-----------------------------------------------------------------| 
B|-----5--------5---------5---------5------------------------------| 
G|-----5--------5---------5---------5------------------------------| 
D|-----------------------------------------------------------------| 
A|---0------0------------------------------------------------------| 
E|------------4-------4-3-------3-2--------------------------------| 
  
My girl, if looks gave heart attacks 
e|-----------------------------------------------------------------| 
B|-----5--------5---------5---------5------------------------------| 
G|-----5--------5---------5---------5------------------------------| 
D|-----------------------------------------------------------------| 
A|---0------0------------------------------------------------------| 
E|------------4-------4-3-------3-2--------------------------------| 

The dangerous men in the shadows were like an audience 
e|-----------------------------------------------------------------| 
B|-----5--------5---------5---------5------------------------------| 
G|-----5--------5---------5---------5------------------------------| 
D|-----------------------------------------------------------------| 
A|---0------0------------------------------------------------------| 
E|------------4-------4-3-------3-2--------------------------------| 

and even the meanest among them had a special little shine in their eyes 
e|-----------------------------------------------------------------| 
B|-----5--------5---------5---------5------------------------------| 
G|-----5--------5---------5---------5------------------------------| 
D|-----------------------------------------------------------------| 
A|---0------0------------------------------------------------------| 
E|------------4-------4-3-------3-2--------------------------------| 

when they saw us              walk by 
e|-----------------------------------------------------------------| 
B|-----5--------5---------5---------5------------------------------| 
G|-----5--------5---------5---------5------------------------------| 
D|-----------------------------------------------------------------| 
A|---0------0------------------------------------------------------| 
E|------------4-------4-3-------3-2--------------------------------| 

Walked about twenty blocks talking about good bars and better towns than this one 
e|-----------------------------------------------------------------| 
B|-----5--------5---------5---------5------------------------------| 
G|-----5--------5---------5---------5------------------------------| 
D|-----------------------------------------------------------------| 
A|---0------0------------------------------------------------------| 
E|------------4-------4-3-------3-2--------------------------------| 

Kissed that first night, and then the rain opened up the sky to get 
e|-1-----1-----1---0--1--3--X--------------------------------------| 
B|-1-------1-------0--1--3--X--------------------------------------| 
G|-2---------2-----1--2--4--X--------------------------------------| 
D|-3---------------2--3--5--X--------------------------------------| 
A|-3---------------2--3--5--X--------------------------------------| 
E|-1---------------0--1--3--X--------------------------------------| 


Chorus 

One last kiss. I love you like an alcoholic 
e|-----------------------------------------------------------------| 
B|-----5--------5---------5---------5------------------------------| 
G|-----5--------5---------5---------5------------------------------| 
D|-----------------------------------------------------------------| 
A|---0------0------------------------------------------------------| 
E|------------4-------4-3-------3-2--------------------------------| 

One last kiss. I love you like a statuette 
e|-----------------------------------------------------------------| 
B|-----5--------5---------5---------5------------------------------| 
G|-----5--------5---------5---------5------------------------------| 
D|-----------------------------------------------------------------| 
A|---0------0------------------------------------------------------| 
E|------------4-------4-3-------3-2--------------------------------| 

One last kiss. I need you like I need a broken leg 
e|-1-----1-----1---0--1--3--X--------------------------------------| 
B|-1-------1-------0--1--3--X--------------------------------------| 
G|-2---------2-----1--2--4--X--------------------------------------| 
D|-3---------------2--3--5--X--------------------------------------| 
A|-3---------------2--3--5--X--------------------------------------| 
E|-1---------------0--1--3--X--------------------------------------| 



************************************ 

| p  Pull-off 
| /  Slide up 
| \  Slide down 
| X  Dead note 

************************************ 



Lyrics: 

Verse 

Heavy humid night. Corner of Park and Main. 
Cast that first glance: your smile, my veins 
at maximum capacity, blood pumping so fast. 
My girl, if looks gave heart attacks. 
The dangerous men in the shadows were like an audience, 
and even the meanest among them had a special little shine in their eyes 
when they saw us walk by. 
Walked about twenty blocks talking about good bars and better towns than this one. 
Kissed that first night, and then the rain opened up the sky to get 


Chorus 

One last kiss. I love you like an alcoholic. 
One last kiss. I love you like a statuette.  
One last kiss. I need you like I need a broken leg. 


Verse 

I was getting off the late shift, attempting to recover. 
Crumpled up the bus pass and tossed it into the gutter. 
Some handsome dark stranger, you were standing there on the corner. 
You had those compelling magnetized eyes that you must have lost when you got older. 
Seven blocks in, my fingers brushed your hand; 
I blushed and you laughed, but you seemed a little sad. 
I ain't one to jump a ship, but I absolutely knew – 
I was six steps in when I fell into you. 


Chorus 

One last kiss. I love you like a broken pot.  
One last kiss. I love you like a pack of dogs.  
One last kiss. I need you like I need a gaping head wound. 

One last kiss. I love you like an like an alcoholic.  
One last kiss. I love you like a negligee. 
One last kiss. I need you like I need a broken leg 

Compartilhe esta música: novo

QR Code
Copiar