Wild Thing

The Runaways

Tom: A
Intro: A5 D5 E5 D5 

 
        G5 A5 
E|-----------------------------------------| 
B|-----------------------------------------| 
G|-----------------------------------------| x2 
D|-----------------------------------------| 
A|-----5/7~---------5/7~-------------------| 
E|-----3/5~---------3/5~-------------------| 
 
 
    A5           D5     E5 
E|-----------------------------------------| 
B|-----------------------------------------| 
G|------X-X-X-X-7--7-X-9--9-X-X-X-X-7--7---| X3 
D|-7--7-X-X-X-X-7--7-X-9--9-X-X-X-X-7--7---| 
A|-7--7-X-X-X-X-5--5-X-7--7-X-X-X-X-5--5---| 
E|-5--5-X-X-X-X----------------------------| 
 

VERSOS: 
    
  A5        D5     E5    D5           A5          D5     E5    D5             A5 
                   
Wild thing,             you make my heart sing,             you make everything   

D5          E5             D5                          A5 
                          yeah, yeah, yeah,         wild thing 


REFRÃO: 
 
        G5 A5 
E|-----------------------------------------| 
B|-----------------------------------------| 
G|-----------------------------------------| x4 
D|-----------------------------------------| 
A|-----5/7~---------5/7~-------------------| 
E|-----3/5~---------3/5~-------------------| 
 

(G5 A5) 
Wild thing, I think you move me 
But I gotta know for sure 
Come on and hold me tight 
Oh you move me 

VERSOS: A5 D5 E5 

(A5 D5 E5) 
Wild thing 
You make my heart sing 
You make everything 
Come on, wild thing 

REFRÃO: G5 A5 

(G5 A5) 
Wild thing, I think I need you 
But I gotta know for sure 
Come on and squeeze me tight 
Oh I need it 

Solo: 

 
    A5           D5     E5 
E|-----------------------------------------| 
B|-----------------------------------------| 
G|------X-X-X-X-7--7-X-9--9-X-X-X-X-7--7---| 
D|-7--7-X-X-X-X-7--7-X-9--9-X-X-X-X-7--7---| 
A|-7--7-X-X-X-X-5--5-X-7--7-X-X-X-X-5--5---| 
E|-5--5-X-X-X-X----------------------------| 
 
 
|------------------------------------------------------------------------| 
|------------------------------------------------------------------------| 
|---5h7p5h7p5h7~~--5h7/9/7p5~~--4h5p4h5p4h5~~--4h5/7/5p4~~--2h4p2h4p2h4--| 
|------------------------------------------------------------------------| 
|------------------------------------------------------------------------| 
|------------------------------------------------------------------------| 
 

VERSOS: A5 D5 A5 

(A5 D5 E5) 
Wild thing 
You make my heart sing 
You make everything 
Come on, wild thing 

REFRÃO: G5 A5 

 
    A5           D5     E5 
E|-----------------------------------------| 
B|-----------------------------------------| 
G|------X-X-X-X-7--7-X-9--9-X-X-X-X-7--7---| 
D|-7--7-X-X-X-X-7--7-X-9--9-X-X-X-X-7--7---| 
A|-7--7-X-X-X-X-5--5-X-7--7-X-X-X-X-5--5---| 
E|-5--5-X-X-X-X----------------------------| 
 
 
   D5 A5 E5 
E|----------| 
B|----------| 
G|-7---9----| 
D|-7-7-9-7--| 
A|-5-7-7-7--| 
E|---5---5--| 
 
 
   D5 A5 
E|----------| 
B|----------| 
G|-7---7----| 
D|-7-7-7-7--| 
A|-5-7-5-7--| 
E|---5---5--| 
 
  
 
   D5 
E|---------------| 
B|---------------| 
G|-7/16--7/167---| 
D|-7/16--7/167---| 
A|-5/14--5/145---| 
E|---------------| 

Compartilhe esta música: novo

QR Code
Copiar