Brown Sugar

The Rolling Stones

Tom: C
Brown Sugar' - by the Rolling Stones 
------------- 
 
A friend of mine just showed me this recently. I love it :) 
Chords only, though... lyrics should be easy from the recording, 
and for any lead you're on your own... I don't 'do' lead :) 
 
(Note: I'm not filling in chords that were already diagramed, 
I'm doing this on the fly and it takes too long!) 
 
Main part: 
 
e---x---x-------8---x-------4-------6---------- 
b---8---9-------8--10-------4-------6---------- 
g---8---8-------9--10-------5-------7---------- 
d---8---8------10--10-------6-------8---------- 
a---6---6------10---8-------6-------8---------- 
E---x---x-------8---x-------4-------6---------- 
   D#  D#?  D# C   F   C   G#  D#  A#  F   C  
 
Where 'Brown Sugar' lyrics come in: 
 
e---3------ 
b---3------ 
g---4------ 
d---5------ 
a---5------ 
E---3------ 
    G   C  
 
That's about the whole song... The strumming is a little strange; 
listen to the album. More Stones stuff, please! (If anyone has it!) 

Compartilhe esta música: novo

QR Code
Copiar