Used to feel before

The Rasmus

Riff 1 
e|-----------|---------| 
b|-----------|---------| 
g|-----------|---------| 
d|-----------|---------| 
A|-4-4-2-4-4-|-4-2-----| 
E|-----------|-----4s9-| 
 
Verse 
e|---------| 
b|---------| 
g|---------| 
d|---------| 
A|-4-4-2-4-| 
E|---------| 
 
Riff 2 
e|---------------|---------------| 
b|---------------|---------------| 
g|---0-1-2-3-2---|---------------| 
d|-3-----------0-|-2-3-4-5-6-5-1-| 
A|---------------|---------------| 
E|---------------|---------------| 
 
Riff 3 
e|-----------------|-------| 
b|-----------------|-------| 
g|---0-1-1-2-3-3-4-|-3-0---| 
d|-3---------------|-----3-| 
A|-----------------|-------| 
E|-----------------|-------| 
 
Riff 4 
e|-----------------|-------| 
b|-----------------|-------| 
g|-----------------|-------| 
d|---0-1-1-2-3-3-4-|-3-0---| 
A|-3---------------|-----3-| 
E|-----------------|-------| 
 
 
 
Riff 1 -x6 
Verse  -x4 
Riff 1 -x2 
Verse  -x4 
Riff 1 -x2 
Riff 2 -x2 
Riff 1 -x2 
Verse  -x4 
Riff 1 -x2 
Riff 2 -x2 
(somewhere here should be solo but I haven't got idea for it :| ) 
Riff 3 -x2 
Riff 2 -x2 
Riff 1 -x4 
 
I don't know if this is 100% right but for me it's OK! 
 
 
Downloaded from www.taborama.com 
 
================================================================================ 

Compartilhe esta música: novo

QR Code
Copiar