Sail away (acoustic)

The Rasmus

Tom: G2
-INTRO- 
Guitar 1 
------5-7-5-------|------3-5-3-------| 
------------5---5-|------------3---3-| 
---5----------5---|---4----------3---| 
-7----------------|-5----------------| 
------------------|------------------| 
------------------|------------------|   
 
------5-7-5-------|------3-5-3-------| 
------------5---5-|------------3---3-| 
---5----------5---|---4----------3---| 
-7----------------|-5----------------| 
------------------|------------------| 
------------------|------------------|   
  
Now Guitar 2 starts playing this chords with the 1st guitar. 
 
G2       Am                   E 
------5-7-5-------|------3-5-3-------| 
------------5---5-|------------3---3-| 
---5----------5---|---4----------3---| 
-7----------------|-5----------------|  
------------------|------------------| 
------------------|------------------|  <---G1  Twice 
 

Compartilhe esta música: novo

QR Code
Copiar