Heart of misery

The Rasmus

Intro: 
E|---------------------------| 
B|---------------------------| 
G|-7-7-7-6-4--4-9-9-7-7--7-6-| 
D|-7-7-7-6-4--4-9-9-7-7--7-6-|x2 
A|-5-5-5-4-2--2-7-7-5-5--5-4-| 
E|---------------------------| 
 
E|---------------------------| 
B|---------------------------| 
G|---------------------------| 
D|---------------------------|x2 
A|-7-7-7-6-4--4-9-9-7-7--7-6-| 
E|-5-5-5-4-2--2-7-7-5-5--5-4-| 
 
Verse: 
..........................................P.M....................................... 
E|---------------------------------------------------------------------------------| 
B|---------------------------------------------------------------------------------| 
G|---------------------------------------------------------------------------------| 
D|-7-7-7-7-7--7-7-7--7--7-7-7-7----------------------------------------------------|x2 
A|-5-5-5-5-5--5-5-5--5--5-5-5-5--5-5-5-5--5-5-5--5--5--5-5-5-5-5--5-5/7-7-7-7--7-7-| 
E|-------------------------------3-3-3-3--3-3-3--3--3--3-3-3-3-3--3-3/5-5-5-5--5-5-| 
 
Chorus: 
E|-------------------------------------------| 
B|-------------------------------------------| 
D|-------------------------------------------| 
G|-6-6-6------6-6-6------6-6-6-------2-2-4-4-| 
A|-6-6-6-5-4--6-6-6-5-4--6-6-6-5-4-2-2-2-4-4-|x2 
E|-4-4-4------4-4-4------4-4-4-------0-0-2-2-| 
 
Then: 
E|---------------------------| 
B|---------------------------| 
G|-7-7-7-6-4--4-9-9-7-7--7-6-| 
D|-7-7-7-6-4--4-9-9-7-7--7-6-|x2 
A|-5-5-5-4-2--2-7-7-5-5--5-4-| 
E|---------------------------| 
 
E|---------------------------| 
B|---------------------------| 
G|---------------------------| 
D|---------------------------|x2 
A|-7-7-7-6-4--4-9-9-7-7--7-6-| 
E|-5-5-5-4-2--2-7-7-5-5--5-4-| 
 
Verse 2: 
..........................................P.M....................................... 
E|---------------------------------------------------------------------------------| 
B|---------------------------------------------------------------------------------| 
G|---------------------------------------------------------------------------------| 
D|-7-7-7-7-7--7-7-7--7--7-7-7-7----------------------------------------------------|x2 
A|-5-5-5-5-5--5-5-5--5--5-5-5-5--5-5-5-5--5-5-5--5--5--5-5-5-5-5--5-5/7-7-7-7--7-7-| 
E|-------------------------------3-3-3-3--3-3-3--3--3--3-3-3-3-3--3-3/5-5-5-5--5-5-| 
 
Chorus: 
E|-------------------------------------------| 
B|-------------------------------------------| 
D|-------------------------------------------| 
G|-6-6-6------6-6-6------6-6-6-------2-2-4-4-| 
A|-6-6-6-5-4--6-6-6-5-4--6-6-6-5-4-2-2-2-4-4-|x2 
E|-4-4-4------4-4-4------4-4-4-------0-0-2-2-| 
 
Bridge: 
E|-----------------------------------------------------| 
B|-----------------------------------------------------| 
D|-----------------------------------------------------| 
G|-7-7-7-7-7-7-6-6-6-6-6-6-6-5-5-5-5-5-2-2-2-2-4-4-4-4-| 
A|-7-7-7-7-7-7-6-6-6-6-6-6-6-5-5-5-5-5-2-2-2-2-4-4-4-4-|x2 
E|-5-5-5-5-5-5-4-4-4-4-4-4-4-3-3-3-3-3-0-0-0-0-2-2-2-2-| 
 
E|-----------------------------| 
B|-----------------------------| 
D|-----------------------------| 
G|-6-6---6-6---6-6-6---2-2-4-4-| 
A|-6-6---6-6---6-6-6---2-2-4-4-|x2 
E|-4-4---4-4---4-4-4---0-0-2-2-| 
 
Chorus: 
E|-------------------------------------------| 
B|-------------------------------------------| 
D|-------------------------------------------| 
G|-6-6-6------6-6-6------6-6-6-------2-2-4-4-| 
A|-6-6-6-5-4--6-6-6-5-4--6-6-6-5-4-2-2-2-4-4-|x4 
E|-4-4-4------4-4-4------4-4-4-------0-0-2-2-| 
 
 

Compartilhe esta música: novo

QR Code
Copiar