Winters Coming

The Narrative

 
 

verse 1 

e|------------------------------------------------------|----------------------| 
B|------------------------------------------------------|----------------------| 
G|--0-4-2--------2-4-2p-0------7-9-7-5-----2-4-2--------|--2-4-2-0-------------| 
D|--------4--------------------------------------4------|----------5555-6666666| 
A|------------------------------------------------------|----------------------| 
E|-----------5\1-----------3/11---------9\1-------------|----------------------| 
                                                      x3          end with^  

'Are you in danger, you swore by a ship wreck...'   

Chorus 1    

e|-------------------------------|----------------------------------------------| 
B|--3----------------------------|--3-------------------------------------------| 
G|--5----------------------------|--5-------------------------------------------| 
D|--5--------4--------7----------|--5--------4--------7-------------------------| 
A|--5--------5--------5----------|--5--------5--------5-------------------------| 
E|-----------3--------5----------|-----------3--------5-------------------------| 
                               x3                end with^ 
Listen to song for strumming pattern 

'And the Winter's coming close...'Cause I am a sinner with a crooked smile...'      

Post Chorus/verse 2.  

e|--x--------x--------x--------x-(3-2222-3333333)*--------------------------------| 
B|--3--------3--------7--------3--------------------------------------------------| 
G|-----------2-----------------2--------------------------------------------------| 
D|-----------2-----------------2--------------------------------------------------| 
A|--x-----------------------------------------------------------------------------| 
E|--3-----------------7-----------------------------------------------------------| 

Post Chorus x1 verse 2 x3 
*Optional if you want to mimic the pattern played by the piano 
These parts are the same, but pick through the chords for the post Chorus and strum the verse. 

'I drown in the mirror, you know this thing is a damn disease...' 

Chorus 2 
e|-------------------------------|--------------------x----------------------------x--| 
B|--3----------------------------|--3-----------------3---------3------------------3--| 
G|--5----------------------------|--5-----------------2---------5------------------2--| 
D|--5--------4--------7----------|--5--------4--------2---------5--------4---------2--| 
A|--5--------5--------5----------|--5--------5------------------5--------5------------| 
E|-----------3--------5----------|-----------3---------------------------3------------| 
                             x3   
Listen to song for strumming pattern 

'And the Winter's coming close...'Cause I am a sinner with a crooked smile...' 
               
Bridge 
e|------------x------------|-------------------------------------x---------------| 
B|--3~--------3~-----------|--3-------------------------3--------3---------------| 
G|--5~--------2~-----------|--5-------------------------5--------2---------------| 
D|--5~--------2~--------4~-|--5--------4--------7-------5--------2--------4------| 
A|--5~------------------5~-|--5--------5--------5-------5-----------------5------| 
E|----------------------3~-|-----------3--------5-------------------------3------| 
                       x2                                     Repeat until ending 

Ending 
e|-----------------------------------------------------------------------------| 
B|-----------------------------------------------------------------------------| 
G|--3~-------------------------------------------------------------------------| 
D|--5~-------------------------------------------------------------------------| 
A|--5~-------------------------------------------------------------------------| 
E|--5~-------------------------------------------------------------------------| 

''Cause I am a sinner with a crooked smile and you took to the rhythm of a no good liar...' 

************************************ 

| /   slide up 
| \   slide down 
| p   pull-off 
| ~   vibrato 
| x   Mute note 
************************************ 

Compartilhe esta música: novo

QR Code
Copiar