Every Romance Language

The Ergs

Can't figure out the solo, and the Chorus isn't all there. Someone finish it off. 

Intro (x3) 
e|--------------------------------| 
B|--------------------------------| 
G|-7---10-9-----------------------| 
D|-7-9-10-9-----------------------| 
A|-5-9--8-7-----------------------| 
E|---7----------------------------| 

Intro End 
e|--------------------------------| 
B|--------------------------------| 
G|-7---10-9-8-7-------------------| 
D|-7-9-10-9-8-7-------------------| 
A|-5-9--8-7-6-5-------------------| 
E|---7----------------------------| 

Verse (x3) 
e|--------------------------------| 
B|--------------------------------| 
G|-7---10-------------------------| 
D|-7-9-10-7-----------------------| 
A|-5-9--8-7-----------------------| 
E|---7----5-----------------------| 
There were times when if i told you this 
You would've been impressed 
And in time, those days might make their way back 
I won't hold my breath 
There were times where we were stupid kids 
And it was all a game 
e|--------------------------------| 
B|--------------------------------| 
G|-7---10-------------------------| 
D|-7-9-10-------------------------| 
A|-5-9--8-------------------------| 
E|---7----------------------------| 
But as for now, this is the best night of my life 

Chorus 
e|--------------------------------| 
B|--------------------------------| 
G|--------------------------------| 
D|-8------------------------------| 
A|-8------------------------------| 
E|-6------------------------------| 
And if you were here 
I know you'd love it so 
I wish you were here 
Because i love you so 

Verse (x3) 
e|--------------------------------| 
B|--------------------------------| 
G|-7---10-------------------------| 
D|-7-9-10-7-----------------------| 
A|-5-9--8-7-----------------------| 
E|---7----5-----------------------| 
And these are things i often think about 
But it's a waste of time 
'Cause you're not here, I'm not sober 
It's not 1999 
And these are things i often think about 
But it's all in the past 
e|--------------------------------| 
B|--------------------------------| 
G|-7---10-------------------------| 
D|-7-9-10-------------------------| 
A|-5-9--8-------------------------| 
E|---7----------------------------| 
And as for now, this is the best night of my life 

Chorus 
e|--------------------------------| 
B|--------------------------------| 
G|--------------------------------| 
D|-8------------------------------| 
A|-8------------------------------| 
E|-6------------------------------| 
And if you were here 
I'd say i love you so 
I wish you were here 
But you're not 

Outro 
e|--------------------------------| 
B|--------------------------------| 
G|-7-9----------------------------| 
D|-7-9-9-8------------------------| 
A|-5-7-9-8------------------------| 
E|-----7-6------------------------| 
And every romance language tends to sound the same 

Compartilhe esta música: novo

QR Code
Copiar