Heads Up Dusters

The Dopamines

INTRO                                   Heads Up Dusters - Dopamines 
e|-----|         
b|-----|         
g|-5---|         
d|-5-5-|         
a|-3-5-|         
e|---3-| 
         
VERSE 
e|-------------|                e|------------| 
b|-------------|                b|------------| 
g|--------5----|                g|-7-----5----| 
d|-5------5-x8-| x4             d|-7-x28-5-x4-| 
a|-5-x24--3----|                a|-5-----3----| 
e|-3-----------|                e|------------| 
  P.M.---------o                  P.M.--o 

Chorus x4 
e|-------------------------------------------------------------------| 
b|-------------------------------------------------------------------| 
g|-------------------------------------------------5-5-5-5-(5)-5-5-5-| 
d|-5-5-5-5-5-5-5-5-7-7-7-7-7-7-7-7-9-9-9-9-9-9-9-9-5-5-5-5-(5)-5-5-5-|  
a|-5-5-5-5-5-5-5-5-7-7-7-7-7-7-7-7-9-9-9-9-9-9-9-9-3-3-3-3-(3)-3-3-3-| 
e|-3-3-3-3-3-3-3-3-5-5-5-5-5-5-5-5-7-7-7-7-7-7-7-7-------------------| 

VERSE 
e|-------------|                e|------------| 
b|-------------|                b|------------| 
g|--------5----|                g|-7-----5----| 
d|-5------5-x8-| x4             d|-7-x28-5-x4-| 
a|-5-x24--3----|                a|-5-----3----| 
e|-3-----------|                e|------------| 
  P.M.---o                        P.M.?o 

Chorus X4 

BRIDGE 
e|-----------------------------------------------------------------| 
b|-----------------------------------------------------------------| 
g|-5-5-5-5-------------------------5-5-5-5-------------------------| 
d|-5-5-5-5-3-3-3-3-5-5-5-5-7-7-7-7-5-5-5-5-3-3-3-3-5-5-5-5-5-5-5-5-| x2 
a|-3-3-3-3-3-3-3-3-5-5-5-5-7-7-7-7-3-3-3-3-3-3-3-3-5-5-5-5-5-5-5-5-| 
e|---------1-1-1-1-3-3-3-3-5-5-5-5---------1-1-1-1-3-3-3-3-3-3-3-3-| 

e|-----------------------------------------| 
b|-----------------------------------------| 
g|-7-7-7-7-7-7-7-7-----------------5-5-5-5-| 
d|-7-7-7-7-7-7-7-7-7-7-7-7-7-7-7-7-5-5-5-5-| 
a|-5-5-5-5-5-5-5-5-7-7-7-7-7-7-7-7-3-3-3-3-| 
e|-----------------5-5-5-5-5-5-5-5---------| 

Chorus x4 

OUTRO 
e|-------| 
b|-------| 
g|-------| 
d|-5-9-2-| 
a|-5-9-2-| 
e|-3-7-0-| 

That's it! (use font Courier, 9 for easy printing) 

Compartilhe esta música: novo

QR Code
Copiar