Group Identity

The Computers

Tuning: standard 

e|-0----------|----------------------------------| 
B|---0--------|----------------------------------| 
G|-----2------|--4-4-4-4-4-4-4-4-4-4-4-4-4-4-4-4-| 
D|-------3----|--4-4-4-4-4-4-4-4-4-4-4-4-4-4-4-4-| 
A|---------3--|--2-2-2-2-2-2-2-2-2-2-2-2-2-2-2-2-| 
E|-----------0|----------------------------------| 

e|--------0--0-0--2-2-2--3-2-2--| 
B|--------0--0-0--3-3-3--3-3-3--| 
G|--------0--0-0--2-2-2--2-2-2--| 
D|-2-2-2--2--2-2----------------| 
A|-2-2-2--2--2-2----------------| 
E|-0-0-0--0--0-0----------------| 

riff is played through 
each verse 


this is played over the riff during the intro and verse 
i think a POG is used during the verse 
i don't know ok... 

e|-------------------| 
B|-------------------| 
G|---4-2-4-----------| 
D|------------4-2-0--| 
A|-2--------2--------| 
E|-------------------| 

Chorus  

e|-----------------------------------------0--| 
B|-----------------------------------------0--| 
G|-5-5-5-5-5-5-5-5-5-5-5-5-5-5-5-5---------0--| 
D|-5-5-5-5-5-5-5-5-5-5-5-5-5-5-5-5--2-2-2--2--| 
A|-3-3-3-3-3-3-3-3-3-3-3-3-3-3-3-3--2-2-2--2--| 
E|----------------------------------0-0-0--0--| 

e|-0-0-0-0-0-0-0-0-| 
B|-0-0-0-0-0-0-0-0-| 
G|-0-0-0-0-0-0-0-0-| 
D|-2-2-2-2-2-2-2-2-| 
A|-2-2-2-2-2-2-2-2-| 
E|-0-0-0-0-0-0-0-0-| 

then 

e|---------------------------------| 
B|---------------------------------| 
G|-3-3-3-3-3-3-3-3-3-3-3-3-3-3-3-3-| x2 
D|-3-3-3-3-3-3-3-3-3-3-3-3-3-3-3-3-| 
A|-1-1-1-1-1-1-1-1-1-1-1-1-1-1-1-1-| 
E|---------------------------------| 

verse again 

Chorus again 

then this part which i found hard to follow so it 
might not be all right 
basically just alternate between chords 

e|-----------------------------------------| 
B|-----------------------3--------------0--| 
G|-4-4-4-2-4-4-2-4-2-4-4-4-4-4-2-4----2----| 
D|-4-4-4-4-4-4-4-4-4-4-4-4-4-4-4-4--4------| 
A|-2-2-2-2-2-2-2-2-2-2-2-2-2-2-2-2---------| 
E|-----------------------------------------| 

solo 

e|------------------------------------------------| 
B|-5/7-7-7-7-7-7-7-7-7-7-7-7-7-7b-----------------| 
G|--------------------------------9p7-----7-------| 
D|------------------------------------9-9---9-7---| 
A|----------------------------------------------9-| 
E|------------------------------------------------| 


e|--------------------------------------------| 
B|-5/7-7-7-7-7-7-7-7-7-7-7-7-7-7b-------------| 
G|--------------------------------9p7---------| 
D|------------------------------------9-9-9-9-| 
A|--------------------------------------------| 
E|--------------------------------------------| 

e|------------------| 
B|------------------| 
G|------------------| 
D|-9-8-7------------| 
A|-------9-8-7------| 
E|-------------10-7-| 

'THIS IS NOT ABOUT YOU THIS IS NOT ABOUT' 

e|---------------------------------| 
B|---------------------------------| 
G|-4-4-4-4-4-4-4-4-4-4-4-4-4-4-4-4-| 
D|-4-4-4-4-4-4-4-4-4-4-4-4-4-4-4-4-| 
A|-2-2-2-2-2-2-2-2-2-2-2-2-2-2-2-2-| 
E|---------------------------------| 

e|---------------------------------| 
B|---------------------------------| 
G|-4-4-4-4-4-4-4-4-4-4-4-4-4-4-4-4-| 
D|-4-4-4-4-4-4-4-4-4-4-4-4-4-4-4-4-| 
A|-2-2-2-2-2-2-2-2-2-2-2-2-2-2-2-2-| 
E|---------------------------------| 

e|-------------------------------| 
B|-------------------------------| 
G|-9-9-9-9-9-9-9-9-7-7-7-7-------| 
D|-9-9-9-9-9-9-9-9-7-7-7-7-7-7-7-| 
A|-7-7-7-7-7-7-7-7-5-5-5-5-7-7-7-| repeatx4 
E|-------------------------5-5-5-| 



************************************ 

| /   slide up 
| \   slide down 
| h   hammer-on 
| p   pull-off 
| ~   vibrato 
| +   harmonic 
| x   Mute note 
| b   Bend 
| pb  Pre-bend 
| br  Bend release 
| pbr Pre-bend release 
| brb Bend release bend 

************************************ 

Compartilhe esta música: novo

QR Code
Copiar