Cadillacin

The Cadillac Three

Tom: D
Cadillacin' 

                        Dsus 
e|-------------------------------|-------------------------| 
B|---3-2p0--------------3---3----|--3-2p0------------------| 
G|---------2p0----------2---2----|--------2p0--------------| 
D|--------------2s5--0--0 --0----|-------------2s3-0-------| 
A|-------------------------------|--------------------?----| 
E|-------------------------------|--------------------?----| 


Chorus 

      Fuzzy dice on the mirror, cooler in the back full of beer, radio bumpin' a little bit of something that 
  Em        G5          F#                    Bm            Em         G5                      F# 
e|----------------------------------------------------------------------------------------------------------| 
B|----------------------------------------------------------------------------------------------------------| 
G|0-0-----------------------------------------4-4-----------0-0---------------------------------------------| 
D|2-2-------5-5---------4-4-------------------4-4-----------2-2--------5-5---------------------4-4----------| 
A|2-2-------5-5---------4-4-------------------2-2-----------2-2--------5-5---------------------4-4----------| 
E|----------3-3---------2-2--------------------------------------------3-3---------------------2-2----------| 

sounds like Cheap Sunglasses 
            (N.C. - no chord) 


        Catchin' every girl's eye, as we roll on by,rollin' through the hood, lookin' damn good, cadillacin' 
  Em        G5           F#                    Bm            Em        G5                       F#           
e|----------------------------------------------------------------------------------------------------------| 
B|----------------------------------------------------------------------------------------------------------| 
G|0-0-----------------------------------------4-4-----------0-0---------------------------------------------| 
D|2-2-------5-5---------4-4-------------------4-4-----------2-2--------5-5---------------------4-4----------| 
A|2-2-------5-5---------4-4-------------------2-2-----------2-2--------5-5---------------------4-4----------| 
E|----------3-3---------2-2--------------------------------------------3-3---------------------2-2----------| 


************************************ 

| p  Pull-off 
| s  Slide 

************************************ 

Compartilhe esta música: novo

QR Code
Copiar