You On The Run

The Black Angels

Intro & mAin pArt: 
e-----------------------------------------------| 
B-----------------------------------------------| 
G-----------------------------------------------| 
D-0-0-0-0-0-0-0-0-3-3-3-3-0-0-0-0-0-0-0-3-3-3-3-| 
A-----------------------------------------------| 
D-0-0-0-0-0-0-0-0-3-3-3-3-0-0-0-0-0-0-0-3-3-3-3-| 

PArt with vAriAtion in the verse: 
e--------------------------------------------------------| 
B--------------------------------------------------------| 
G----------------14-14-14-14-----------------14-14-14-14-| 
D-0-0-0-0-0-0-0-0-------------0-0-0-0-0-0-0-0------------| 
A----------------12-12-12-12-----------------12-12-12-12-| 
D-0-0-0-0-0-0-0-0-------------0-0-0-0-0-0-0-0------------| 

FADinG into... 
e-----------------------------------------------------------| 
B-----------------------------------------------------------| 
G-----------------------------------------------------------| 
D-10-10-10-10-10-10-10-10-9-9-9-9-B3-B3-B3-B3-0-0-0-0-0-0-0-| 
A-----------------------------------------------------------| 
D---------------------------------------------0-0-0-0-0-0-0-| 

LeAD GuitAr whilst GuitAr 3 plAys solo stuff.. with smAll vAriAtions 
e-------------------------------------------------------| 
B-------------------------------------------------------| 
G-------------------------------------------------------| 
D------10-12-12-12-12-10-10-10-10-3B-3B-3B-3B-0-0-0-0-0-|x8 
A-10-12-------------------------------------------------| 
D---------------------------------------------0-0-0-0-0-| 

'Hello hArmony'... 
e---------------------| 
B---------------------| 
G---------------------| 
D-7-7-7--7--7-7-7--7--| 
A-5-5-5--5--5-5-5--5--| 
D-0-0-0--0--0-0-0--0--| 

PArt with vAriAtion in the verse: 
e--------------------------------------------------------| 
B--------------------------------------------------------| 
G----------------14-14-14-14-----------------14-14-14-14-| 
D-0-0-0-0-0-0-0-0-------------0-0-0-0-0-0-0-0------------| 
A----------------12-12-12-12-----------------12-12-12-12-| 
D-0-0-0-0-0-0-0-0-------------0-0-0-0-0-0-0-0------------| 

FADinG into... 
e-----------------------------------------------------------| 
B-----------------------------------------------------------| 
G-----------------------------------------------------------| 
D-10-10-10-10-10-10-10-10-9-9-9-9-B3-B3-B3-B3-0-0-0-0-0-0-0-| 
A-----------------------------------------------------------| 
D---------------------------------------------0-0-0-0-0-0-0-| 

Outro: short rhythm plAyeD whilst, AnD Before the lAst pArt of the outro. 
e----------------------| 
B----------------------| 
G-7--7--7--7--7--7--7--| 
D----------------------| 
A-5--5--5--5--5--5--5--| 
D----------------------| 

Outro: 
e------------------------------------------------------| 
B------------------------------------------------------| 
G------------------------------------------------------| 
D-----5h7-7-7-7-7-7--7-5---------5h7-7-7-7--7-7-7-5----| 
A--5-8-------------------8-5~-5-8------------------8-5~| 
D------------------------------------------------------| 

Outro: 
e------------------------------------------------------------------| 
B------------------------------------------------------------------| 
G------------------------------------------------------------------| 
D----5h7-7/10-12-12-12--12-10-12-7-7-5-7--7-7-5---7-7-5---7-7-5----|etc.. 
A-5-8------------------------------------------8-5-----8-5-----8-5-| 
D------------------------------------------------------------------| 

Compartilhe esta música: novo

QR Code
Copiar