The Prodigal Sun

The Black Angels

vErsE / intro (vAriAtion in thE two lAst notEs 7-8, 8-7, 1-3 Etc.) 
e----------------------------------------------------------------| 
B----------------------------------------------------------------| 
g----------------------------------------------------------------| 
D--0-0-0-0-0-0-0-0-0-0--0-0-0-0-0-0-0-0-0-0--0-0-0-0-0-0-0-0-0-0-| 
A--5-5-5-5-5-5-5-5-8-7--5-5-5-5-5-5-5-5-7-8--5-5-5-5-5-5-5-5-8-7-| 
E----------------------------------------------------------------| 

kEEps on... 
e-----------------------| 
B-----------------------| 
g-----------------------| 
D--0-0-0-0-0-0-0-0-0-0--| 
A--5-5-5-5-5-5-5-5-1-3--| 
E-----------------------| 

'AnD whEn i...' 
e--------------------------------------------------------------------| 
B--------------------------------------------------------------------| 
g--------------------------------------------------------------------| 
D-0-0-0-0-0-0-0-0--0-0-0-0-0-0-0-0--0-0-0-0-0-0-0-0--0-0-0-0-0-0-0-0-| 
A-1-1-1-1-1-1-1-1--5-5-5-5-5-5-5-5--1-1-1-1-1-1-1-1--5-5-5-5-5-5-5-5-| 
E--------------------------------------------------------------------| 

'LEt it go!' 
e---------------------------------------------------------------------| 
B---------------------------------------------------------------------| 
g--7-7-7-7-7-7-7-7-7-7-7-7-7-7-7-7-7-7--------------------------------| 
D--7-7-7-7-7-7-7-7-7-7-7-7-7-7-7-7-7-7--------------------------------| 
A--5-5-5-5-5-5-5-5-5-5-5-5-5-5-5-5-5-5--13-12/11/10/9/8/7/6/5/4/3/2/1-| 
E---------------------------------------------------------------------| 

Compartilhe esta música: novo

QR Code
Copiar