That Special Girl

The Ataris

 

PM - Palm Mute 
~ - let ring 
 
Intro:  
e|-----| 
b|-----| 
g|-----| 
d|--7--| 
a|--7--| 
E|--5--| 
 
Verse:  Guitar 1 
e|---------------------------------------------------------------------| 
b|---------------------------------------------------------------------| 
g|------------------------------7--------------------7-----------------| 
d|--7---------------------------7------------2-------7-----------------| 
a|--7---------------------------5------------2-------5-----------------| 
E|--5----------------------------------------0-------------------------| 
     
   PM ------------------------                PM--- 
 
Verse Cont'd: Guitar 1 
e|--------------------------------------------------------------------| 
b|--------------------------------------------------------------------| 
g|--------------------------------------------------------------------| 
d|-------7-7-7-7-7-7-7-7--7-6-4--4------------------2-----------------| 
a|-------7-7-7-7-7-7-7-7--7-6-4--4------------------2-----------------| 
E|-------5-5-5-5-5-5-5-5--5-4-2--2------------------0-----------------| 
    
  
Verse Cont'd: Guitar 1 
e|--------------------------------------------------------------------| 
b|--------------------------------------------------------------------| 
g|---7----------------------------------4--------------7~-------------| 
d|---7----------------------------------4--------------7~-------------| 
a|---5----------------------------------2--------------5~-------------| 
E|--------------------------------------------------------------------| 
    
 
Verse: Guitar 2  (at 21 second mark) 
e|--------------------------------------------------------------------| 
b|--------------------------------------------------------------------| 
g|-9-9-9-9--9/11\9----------------------------------------------------| 
d|-x-x-x-x--x/-x\x----------------------------------------------------| 
a|-7-7-7-7--7/-9\7----------------------------------------------------| 
E|--------------------------------------------------------------------| 
 
Bridge: Guitar 1  Play 2x 
e|--------------------------------------------------------------------| 
b|--------------------------------------------------------------------| 
g|---------------------6-6-6-6----------7-7-9-9-----------------------| 
d|-------------7-7-7-7-6-6-6-6-4-4-4-4--7-7-9-9-----------------------| 
a|-------------7-7-7-7-4-4-4-4-4-4-4-4--5-5-7-7-----------------------| 
E|-------------5-5-5-5---------2-2-2-2--------------------------------| 
   
 
Chorus: 
e|--------------------------------------------------------------------| 
b|--------------------------------------------------------------------| 
g|7-------------------------6---------------11-11-11-11--9-9-9-9------| 
d|7--------------2----------6---------------11-11-11-11--9-9-9-9------| 
a|5--------------2----------4----------------9--9--9--9--7-7-7-7------| 
E|---------------0----------------------------------------------------| 
    
 
Chorus Cont'd: 
e|--------------------------------------------------------------------| 
b|--------------------------------------------------------------------| 
g|7-7-7-7-7-7-7-7-7-7-7-7-7-7-7--9-9-9-9-9-9-9-9-9-9-9-9-9-9-9-9-9----| 
d|7-7-7-7-7-7-7-7-7-7-7-7-7-7-7--9-9-9-9-9-9-9-9-9-9-9-9-9-9-9-9-9----| 
a|5-5-5-5-5-5-5-5-5-5-5-5-5-5-5--7-7-7-7-7-7-7-7-7-7-7-7-7-7-7-7-7----| 
E|--------------------------------------------------------------------| 
               
 
Repeat Intro 
 
 
Bridge: Guitar 1   
e|-----| 
b|-----| 
g|-----| 
d|--7--| 
a|--7--| 
E|--5--| 
 
Bridge: Guitar 2  
e|--------------------------------------------------------------------| 
b|--------------------------------------------------------------------| 
g|9-11-13-14----------------------------------------------------------| 
d|x--x--x--x----------------------------------------------------------| 
a|7--9-11-12----------------------------------------------------------| 
E|--------------------------------------------------------------------| 
 
Next Part: Both Guitars   
e|--------------------------------------------------------------------| 
b|--------------------------------------------------------------------| 
g|-------6~----------7--9---------------------------------------------| 
d|-7~----6~----4~----7--9---------------------------------------------| 
a|-7~----4~----4~----5--7---------------------------------------------| 
E|-5~----------2~-----------------------------------------------------| 
 
Ending: 
e|-------------------------------------------------------------------| 
b|-------------------------------------------------------------------| 
g|-7-7-7-7-7-7-9-11-9-7-6-9-2-2-2-2-2-2-2-2--------------------------| 
d|-7-7-7-7-7-7-9-11-9-7-6-9-2-2-2-2-2-2-2-2--2-----------------------| 
a|-5-5-5-5-5-5-7--9-7-5-4-7-0-0-0-0-0-0-0-0--2-----------------------| 
E|-------------------------------------------0-----------------------| 
 

Compartilhe esta música: novo

QR Code
Copiar