Giving Up On Love

The Ataris

Tom: D
The Atari?s ? Giving up on Love 
 
This song is in dropped D 
 
INTRO 
E--------------------------------------------------------------- 
B---------------------------------------------------------------         x2 
G--------------------------------------------------------------- 
D-0?7-7-5-4---0---7-7-9-7-7?5-44-5-4?0?55-4-2------------------- 
A--------------------------------------------------------------- 
D-------------------------------------------------------------- 
 
VERSE 
E------------------------------------------------------------- 
B-------------------------------------------------------------        x4 
G------------------------------------------------------------- 
D-00000000-5555555555-9999999999-5-55555555 
A-00000000-5555555555-9999999999-5-55555555 
D-00000000-5555555555-9999999999-5-55555555 
 
VERSE GUITAR BIT 
E-14-----14----15----15--- 
B-----15----15----15----15 
G----------------------------- 
D----------------------------- 
A----------------------------- 
D----------------------------- 
 
PRECHORUS 
E-------------------------------------------- 
B-------------------------------------------- 
G-------------------------------------------- 
D-0000000-777777-9999999-5555555------------- 
A-0000000-777777-9999999-5555555------------- 
D-0000000-777777-9999999-5555555-------------- 
 
CHORUS 
E---------------------------------------------------------------- 
B----------------------------------  x3--------------------------  x1 
G---------------------------------------------------------------- 
D-77777-55555-00000000000-------------7777-555555-999999999999999 
A-77777-55555-00000000000-------------7777-555555-999999999999999 
D-77777-55555-00000000000-------------7777-555555-999999999999999 
 
 
 
INTERLUDE 
E---------------------------------------------------- 
B----------x2--------------------------------------- 
G-6\7-6--------6-7?9?6-7?9?6-7?9--11----------------- 
D--------7------------------------------------------ 
A----------5---------------------------------------- 
D---------------------------------------------------- 
 

Compartilhe esta música: novo

QR Code
Copiar