Bite My Tongue

The Ataris

 
Sweet song here, but you gotta listen to it while practicing.  There's 
tons of chord changes.   
 
 
beginning riff  
e|-----------------------------------| 
B|-----------------------------------| 
G|-----------------------10----------| 
D|--4--4--4--4--4--4--4--10----------| 
A|--4--4--4--4--4--4--4--8-----------| 
E|--6--6--6--6--6--6--6--------------| 
 
Verse 1 
'What can i say?' 
e|-------------------------------------------| 
B|-------------------------------------------| 
G|---------------------------------8-8-8-8---| 
D|-4-4-4-4-4-4-4-4-5-5-5-5-3-3-3-3-8-8-8-8---| 
A|-4-4-4-4-4-4-4-4-5-5-5-5-3-3-3-3-6-6-6-6---| 
E|-6-6-6-6-6-6-6-6-3-3-3-3-1-1-1-1-----------| 
 
'what can i do when i feel so stupid over you' 
e|---------------------------------------------------------------------------------| 
B|?--------------------------------------------------------------------------------| 
G|----------10-10-10-10-----------8-8-8-8---5-5-5-5-8-8-8-8----------10-10-10-10---| 
D|-4-4-4-4--10-10-10-10--6-6-6-6--8-8-8-8---5-5-5-5-8-8-8-8--8-8-8-8-10-10-10-10---| 
A|-4-4-4-4---8--8--8--8--6-6-6-6--6-6-6-6---3-3-3-3-6-6-6-6--8-8-8-8--8--8--8--8---| 
E|-6-6-6-6---------------4-4-4-4-----------------------------6-6-6-6---------------| 
 
listen closely, watch for chord accents 
 
Chorus:'And i dont wanna work anymore' 
e|--------------------------------------------------------------------------| 
B|?----------------------------------?--------------------------------------| 
G|-4-4-4-4--6-6-6-6-------------------8-8-8-8--10-10-10-10------------------|  
D|-4-4-4-4--6-6-6-6--8-8-8-7-8-8-8-8--8-8-8-8--10-10-10-10--8-8-8-8-8-8-8-8-| 
A|-6-6-6-6--8-8-8-8--8-8-8-7-8-8-8-8--6-6-6-6---8--8--8--8--8-8-8-8-8-8-8-8-| 
E|-------------------6-6-6-5-6-6-6-6------------------------6-6-6-6-6-6-6-6-| 
 
'Someday ill just shut my eyes'  
e|------------------------------------------------------------------------------------| 
B|------------------------------------------------------------------------------------| 
G|-8-8-8-8--10-10-10-10--------------7-7--8-8-8-8--10-10-10-10-----------10-10-10-10--| 
D|-8-8-8-8--10-10-10-10--8-8-8-7-5-5-7-7--8-8-8-8--10-10-10-10--8-8-8-8--10-10-10-10--| 
A|-6-6-6-6---8--8--8--8--8-8-8-7-5-5-5-5--6-6-6-6---8--8--8--8--8-8-8-8---8--8--8--8--| 
E|-----------------------6-6-6-5-3-3----------------------------6-6-6-6---------------| 
 
Verse 2 played twice-  'Whens the right time' 
 
Chorus 
 
Bridge: 'Ill bring you candy and flowers' 
 
e|------------------------------------| 
B|------------------------------------| 
G|-----------5-5-5-5-5-5--4-4-4-4-4---| 
D|-4----6----5-5-5-5-5-5--4-4-4-4-4---| 
A|-4----6----3-3-3-3-3-3--6-6-6-6-6---| 
E|-6----4-----------------------------| 
 
'No more waking up lonely' 
e|----------------------------------------------------------------------| 
B|----------------------------------------------------------------------| 
G|-----------------------------------5-5-5-5-5-5-5-5--8-8-8-8-8-8-8-8---| 
D|-4-4-4-4-4-4-4-4--6-6-6-6-6-6-6-6--5-5-5-5-5-5-5-5--8-8-8-8-8-8-8-8---| 
A|-4-4-4-4-4-4-4-4--6-6-6-6-6-6-6-6--3-3-3-3-3-3-3-3--6-6-6-6-6-6-6-6---| 
E|-6-6-6-6-6-6-6-6--4-4-4-4-4-4-4-4-------------------------------------| 
 
Same thing during the Solo 
 
ROCK HARD! 
 

Compartilhe esta música: novo

QR Code
Copiar