Bad Case Of Broken Heart [Acoustic]

The Ataris

 
~ - let ring  
 
Intro:  Scratching  
e|-x--x--x-x--x--x--x-------------------------------------------------|  
B|-x--x--x-x--x--x--x-------------------------------------------------|  
G|-x--x--x-x--x--x--x-------------------------------------------------|  
D|-x--x--x-x--x--x--x-------------------------------------------------|  
A|-x--x--x-x--x--x--x-------------------------------------------------|  
E|-x--x--x-x--x--x--x-------------------------------------------------|  
 
Verse:  
e|--------------------------------------------------------------------|  
B|--------------------------------------------------------------------|  
G|7---------------------------4---------------------------------------|  
D|7---------------------------4-------------------------5-------------|  
A|5---------------------------2-------------------------5-------------|  
E|------------------------------------------------------3-------------|  
 Today I'm missing something, in this small New England town,  
 
e|--------------------------------------------------------------------|  
B|--------------------------------------------------------------------|  
G|--------------------------------------------------------------------|  
D|---------------------------7----------------------------------------|  
A|---------------------------7----------------------------------------|  
E|---------------------------5----------------------------------------|  
 Here's to you my bestfriend, just wanted to say that I miss having  
 
e|--------------------------------------------------------------------|  
B|--------------------------------------------------------------------|  
G|-----------7----------------------------4---------------------------|  
D|-----------7----------------------------4---------------------------|  
A|-----------5----------------------------2---------------------------|  
E|--------------------------------------------------------------------|  
 you around, I'm staring at your pictures and dreaming that I could  
 
e|--------------------------------------------------------------------|  
B|--------------------------------------------------------------------|  
G|--------------------------------------------------------------------|  
D|--------5-----------------------------------7-----------------------|  
A|--------5-----------------------------------7-----------------------|  
E|--------3-----------------------------------5-----------------------|  
 hold your hand, we walked down to the ocean, and I would write your  
 
e|--------------------------------------------------------------------|  
B|--------------------------------------------------------------------|  
G|--------------------------------------------------------------------|  
D|7~----------7-7-----------------------------------------------------|  
A|7~----------7-7-----------------------------------------------------|  
E|5~----------5-5-----------------------------------------------------|  
 name in the sand.  
 
Chorus:  
e|--------------------------------------------------------------------|  
B|--------------------------------------------------------------------|  
G|4------------------------------------------------7------------------|  
D|4--------------------------------------5---------7------------------|  
A|2--------------------------------------5---------5------------------|  
E|---------------------------------------3----------------------------|  
 They say sometimes you need some time apart, but I've got a bad case  
 
e|--------------------------------------------------------------------|  
B|--------------------------------------------------------------------|  
G|-----------------4--------------------------------------------------|  
D|7----------------4-------------------------------5------------------|  
A|7----------------2-------------------------------5------------------|  
E|5------------------------------------------------3------------------|  
 of broken heart, your the only one who's got the cure, and I can't  
 
e|--------------------------------------------------------------------|  
B|--------------------------------------------------------------------|  
G|-------------------------------------------7~-----------------------|  
D|7------------------------7~----------------7~-----------------------|  
A|7------------------------7~----------------5~-----------------------|  
E|5------------------------5~-----------------------------------------|  
 live another day without seeing you smile. 
 

Compartilhe esta música: novo

QR Code
Copiar