1 15 96 Acoustic

The Ataris

Tom: Eb5
 
Tabbed by [email protected] 
 
NORMAL TUNING 
 
 
INTRO 
      
|--3-3-3-3-3-3-3-3-3-2-2-2-----------------22--| 
|--3-3-3-3-3-3-3-3-3-3-3-3-3-3-3-3-3-3-3-3-33--| 
|--0-0-0-0-0-0-0-0-0-2-2-2-0-0-0-0-0-0-0-0-22--| 
|--0-0-0-0-0-0-2-2-2-0-0-0-2-2-2-2-2-2-2-2-00--| 
|--2-2-2-X-X-X-2-2-2-------3-3-3-3-3-3-3-3-----| 
|--3-3-3-2-2-2-0-0-0---------------------------|x2 
 
VERSE  
|--3-3-3-3-3-3-3-3------------------|--3-3-3-3-3-3-3-3---------------22--| 
|--3-3-3-3-3-3-3-3-3-3-3-3-3-3-3-3--|--3-3-3-3-3-3-3-3-3-3-3-3-3-3-3-33--| 
|--0-0-0-0-0-0-0-0-0-0-0-0-0-0-0-0--|--0-0-0-0-0-0-0-0-0-0-0-0-0-0-0-22--| 
|--0-0-0-0-0-0-0-0-2-2-2-2-2-2-2-2--|--0-0-0-0-0-0-0-0-2-2-2-2-2-2-2-00--| 
|--2-2-2-2-2-2-2-2-3-3-3-3-3-3-3-3--|--2-2-2-2-2-2-2-2-3-3-3-3-3-3-3-----| 
|--3-3-3-3-3-3-3-3------------------|--3-3-3-3-3-3-3-3-------------------| 
 
** then play the intro riff twice** 
 
CHORUS 
|---------------------------------|---------------------------------|-- 
|---------------------------------|---------------------------------|-- 
|--0-0-0-0-0-0-0-0-7-7-7-7-7-7-7--|--0-0-0-0-0-0-0-0-7-7-7-7-7-7-7--|-- 
|--5-5-5-5-5-5-5-5-7-7-7-7-7-7-7--|--5-5-4h5-4h5-4h5-7-7-7-7-7-7-7--|-- 
|--5-5-5-5-5-5-5-5-5-5-5-5-5-5-5--|--5-5-5-5-5-5-5-5-5-5-5-5-5-5-5--|-- 
|--3-3-3-3-3-3-3-3----------------|--3-3-3-3-3-3-3-3----------------|-- 
 
----------------------------------------| 
----------------------------------------| 
--44/9-9-9-9-9-9-9-7-5-5-5-5-5-5-5-5-7--| 
--44/9-9-9-9-9-9-9-7-5-5-5-5-5-5-5-5-7--| 
--22/7-7-7-7-7-7-7-5-3-3-3-3-3-3-3-3-5--| 
----------------------------------------| 
 
Repeat intro riff x2 
 
VERSE 2 - SAME As verse 1 
 
BRIDGE 
|----------------------------------------------------------------------- 
|----------------------------------------------------------------------- 
|--9-9-9-9-X-X-9-9-9-9-7----5-5-5-5-X-X-5-5-5-5-7----4-4-4-4-X-X-3-3-3-- 
|--9-9-9-9-X-X-9-9-9-9-7----5-5-5-5-X-X-5-5-5-5-7----5-5-5-5-X-X-5-5-5-- 
|--7-7-7-7-X-X-7-7-7-7-5----3-3-3-3-X-X-3-3-3-3-5----5-5-5-5-X-X-5-5-5-- 
|----------X-X----------------------X-X--------------3-3-3-3-X-X-3-3-3-- 
 
------------------------| 
------------------------| 
--5/7-77-7--5/7-77-7-8--| 
--5/7-77-7--5/7-77-7-8--| 
--3/5-55-5--3/5-55-5-6--| 
------------------------|x2 {2nd time leave out the last chord, Eb5) 
 
Repeat intro riff x2 
 
Repeat chorus 
 
then play intro x4 and ed on G. 
 

Compartilhe esta música: novo

QR Code
Copiar